  0
SECTION
  2
HEADER
  9
$ACADVER
  1
AC1015
  9
$ACADMAINTVER
 70
    20
  9
$DWGCODEPAGE
  3
ANSI_1252
  9
$INSBASE
 10
8357.985662909804
 20
-1177.360690745886
 30
0.0
  9
$EXTMIN
 10
8155.986544302596
 20
-1575.282016485094
 30
0.0
  9
$EXTMAX
 10
8721.247148662497
 20
-1115.891914684912
 30
0.0
  9
$LIMMIN
 10
0.0
 20
0.0
  9
$LIMMAX
 10
420.0
 20
297.0
  9
$ORTHOMODE
 70
     1
  9
$REGENMODE
 70
     1
  9
$FILLMODE
 70
     1
  9
$QTEXTMODE
 70
     0
  9
$MIRRTEXT
 70
     1
  9
$LTSCALE
 40
0.25
  9
$ATTMODE
 70
     1
  9
$TEXTSIZE
 40
5.0
  9
$TRACEWID
 40
10.0
  9
$TEXTSTYLE
  7
ROMANS
  9
$CLAYER
  8
ANCON-CONCRETE
  9
$CELTYPE
  6
BYLAYER
  9
$CECOLOR
 62
   256
  9
$CELTSCALE
 40
1.0
  9
$DISPSILH
 70
     0
  9
$DIMSCALE
 40
0.0
  9
$DIMASZ
 40
4.0
  9
$DIMEXO
 40
3.0
  9
$DIMDLI
 40
10.0
  9
$DIMRND
 40
0.0
  9
$DIMDLE
 40
1.25
  9
$DIMEXE
 40
3.0
  9
$DIMTP
 40
0.0
  9
$DIMTM
 40
0.0
  9
$DIMTXT
 40
3.0
  9
$DIMCEN
 40
-3.0
  9
$DIMTSZ
 40
0.0
  9
$DIMTOL
 70
     0
  9
$DIMLIM
 70
     0
  9
$DIMTIH
 70
     0
  9
$DIMTOH
 70
     0
  9
$DIMSE1
 70
     0
  9
$DIMSE2
 70
     0
  9
$DIMTAD
 70
     1
  9
$DIMZIN
 70
    12
  9
$DIMBLK
  1

  9
$DIMASO
 70
     1
  9
$DIMSHO
 70
     0
  9
$DIMPOST
  1

  9
$DIMAPOST
  1

  9
$DIMALT
 70
     0
  9
$DIMALTD
 70
     2
  9
$DIMALTF
 40
0.039
  9
$DIMLFAC
 40
1.0
  9
$DIMTOFL
 70
     0
  9
$DIMTVP
 40
1.5
  9
$DIMTIX
 70
     0
  9
$DIMSOXD
 70
     0
  9
$DIMSAH
 70
     0
  9
$DIMBLK1
  1

  9
$DIMBLK2
  1

  9
$DIMSTYLE
  2
1-2
  9
$DIMCLRD
 70
     0
  9
$DIMCLRE
 70
     0
  9
$DIMCLRT
 70
     0
  9
$DIMTFAC
 40
0.75
  9
$DIMGAP
 40
1.5
  9
$DIMJUST
 70
     0
  9
$DIMSD1
 70
     0
  9
$DIMSD2
 70
     0
  9
$DIMTOLJ
 70
     1
  9
$DIMTZIN
 70
    12
  9
$DIMALTZ
 70
    12
  9
$DIMALTTZ
 70
    12
  9
$DIMUPT
 70
     0
  9
$DIMDEC
 70
     2
  9
$DIMTDEC
 70
     2
  9
$DIMALTU
 70
     2
  9
$DIMALTTD
 70
     2
  9
$DIMTXSTY
  7
ROMANS
  9
$DIMAUNIT
 70
     0
  9
$DIMADEC
 70
     0
  9
$DIMALTRND
 40
0.0
  9
$DIMAZIN
 70
     0
  9
$DIMDSEP
 70
    46
  9
$DIMATFIT
 70
     3
  9
$DIMFRAC
 70
     0
  9
$DIMLDRBLK
  1

  9
$DIMLUNIT
 70
     2
  9
$DIMLWD
 70
    -2
  9
$DIMLWE
 70
    -2
  9
$DIMTMOVE
 70
     2
  9
$LUNITS
 70
     2
  9
$LUPREC
 70
     2
  9
$SKETCHINC
 40
1.0
  9
$FILLETRAD
 40
0.0
  9
$AUNITS
 70
     0
  9
$AUPREC
 70
     4
  9
$MENU
  1
acad
  9
$ELEVATION
 40
0.0
  9
$PELEVATION
 40
0.0
  9
$THICKNESS
 40
0.0
  9
$LIMCHECK
 70
     0
  9
$CHAMFERA
 40
0.0
  9
$CHAMFERB
 40
0.0
  9
$CHAMFERC
 40
0.0
  9
$CHAMFERD
 40
0.0
  9
$SKPOLY
 70
     0
  9
$TDCREATE
 40
2449527.571155093
  9
$TDUCREATE
 40
2449527.529488426
  9
$TDUPDATE
 40
2455062.513840231
  9
$TDUUPDATE
 40
2455062.472173565
  9
$TDINDWG
 40
0.8338428009
  9
$TDUSRTIMER
 40
0.8338428009
  9
$USRTIMER
 70
     1
  9
$ANGBASE
 50
0.0
  9
$ANGDIR
 70
     0
  9
$PDMODE
 70
     0
  9
$PDSIZE
 40
0.0
  9
$PLINEWID
 40
0.0
  9
$SPLFRAME
 70
     0
  9
$SPLINETYPE
 70
     6
  9
$SPLINESEGS
 70
     8
  9
$HANDSEED
  5
10C
  9
$SURFTAB1
 70
    18
  9
$SURFTAB2
 70
    18
  9
$SURFTYPE
 70
     6
  9
$SURFU
 70
    18
  9
$SURFV
 70
    18
  9
$UCSBASE
  2

  9
$UCSNAME
  2

  9
$UCSORG
 10
0.0
 20
0.0
 30
0.0
  9
$UCSXDIR
 10
1.0
 20
0.0
 30
0.0
  9
$UCSYDIR
 10
0.0
 20
1.0
 30
0.0
  9
$UCSORTHOREF
  2

  9
$UCSORTHOVIEW
 70
     0
  9
$UCSORGTOP
 10
0.0
 20
0.0
 30
0.0
  9
$UCSORGBOTTOM
 10
0.0
 20
0.0
 30
0.0
  9
$UCSORGLEFT
 10
0.0
 20
0.0
 30
0.0
  9
$UCSORGRIGHT
 10
0.0
 20
0.0
 30
0.0
  9
$UCSORGFRONT
 10
0.0
 20
0.0
 30
0.0
  9
$UCSORGBACK
 10
0.0
 20
0.0
 30
0.0
  9
$PUCSBASE
  2

  9
$PUCSNAME
  2

  9
$PUCSORG
 10
0.0
 20
0.0
 30
0.0
  9
$PUCSXDIR
 10
1.0
 20
0.0
 30
0.0
  9
$PUCSYDIR
 10
0.0
 20
1.0
 30
0.0
  9
$PUCSORTHOREF
  2

  9
$PUCSORTHOVIEW
 70
     0
  9
$PUCSORGTOP
 10
0.0
 20
0.0
 30
0.0
  9
$PUCSORGBOTTOM
 10
0.0
 20
0.0
 30
0.0
  9
$PUCSORGLEFT
 10
0.0
 20
0.0
 30
0.0
  9
$PUCSORGRIGHT
 10
0.0
 20
0.0
 30
0.0
  9
$PUCSORGFRONT
 10
0.0
 20
0.0
 30
0.0
  9
$PUCSORGBACK
 10
0.0
 20
0.0
 30
0.0
  9
$USERI1
 70
     0
  9
$USERI2
 70
     0
  9
$USERI3
 70
     0
  9
$USERI4
 70
     0
  9
$USERI5
 70
     0
  9
$USERR1
 40
0.0
  9
$USERR2
 40
0.0
  9
$USERR3
 40
0.0
  9
$USERR4
 40
0.0
  9
$USERR5
 40
0.0
  9
$WORLDVIEW
 70
     1
  9
$SHADEDGE
 70
     3
  9
$SHADEDIF
 70
    70
  9
$TILEMODE
 70
     1
  9
$MAXACTVP
 70
    16
  9
$PINSBASE
 10
0.0
 20
0.0
 30
0.0
  9
$PLIMCHECK
 70
     0
  9
$PEXTMIN
 10
1.000000000000000E+20
 20
1.000000000000000E+20
 30
1.000000000000000E+20
  9
$PEXTMAX
 10
-1.000000000000000E+20
 20
-1.000000000000000E+20
 30
-1.000000000000000E+20
  9
$PLIMMIN
 10
0.0
 20
0.0
  9
$PLIMMAX
 10
420.0
 20
297.0
  9
$UNITMODE
 70
     0
  9
$VISRETAIN
 70
     0
  9
$PLINEGEN
 70
     0
  9
$PSLTSCALE
 70
     1
  9
$TREEDEPTH
 70
  3020
  9
$CMLSTYLE
  2
STANDARD
  9
$CMLJUST
 70
     0
  9
$CMLSCALE
 40
1.0
  9
$PROXYGRAPHICS
 70
     1
  9
$MEASUREMENT
 70
     0
  9
$CELWEIGHT
370
    -1
  9
$ENDCAPS
280
     0
  9
$JOINSTYLE
280
     0
  9
$LWDISPLAY
290
     0
  9
$INSUNITS
 70
     0
  9
$HYPERLINKBASE
  1

  9
$STYLESHEET
  1

  9
$XEDIT
290
     1
  9
$CEPSNTYPE
380
     0
  9
$PSTYLEMODE
290
     1
  9
$FINGERPRINTGUID
  2
{60C348BD-CBC3-443C-82F1-BD399122F5E8}
  9
$VERSIONGUID
  2
{3D0EA16E-D295-42DB-BB14-F5DEA7F09795}
  9
$EXTNAMES
290
     1
  9
$PSVPSCALE
 40
0.0
  9
$OLESTARTUP
290
     0
  0
ENDSEC
  0
SECTION
  2
CLASSES
  0
CLASS
  1
DICTIONARYVAR
  2
AcDbDictionaryVar
  3
ObjectDBX Classes
 90
        0
280
     0
281
     0
  0
CLASS
  1
LWPOLYLINE
  2
AcDbPolyline
  3
ObjectDBX Classes
 90
    32768
280
     0
281
     1
  0
CLASS
  1
XRECORD
  2
AcDbXrecord
  3
ObjectDBX Classes
 90
        0
280
     0
281
     0
  0
CLASS
  1
ACDBDICTIONARYWDFLT
  2
AcDbDictionaryWithDefault
  3
ObjectDBX Classes
 90
        0
280
     0
281
     0
  0
CLASS
  1
ACDBPLACEHOLDER
  2
AcDbPlaceHolder
  3
ObjectDBX Classes
 90
        0
280
     0
281
     0
  0
CLASS
  1
LAYOUT
  2
AcDbLayout
  3
ObjectDBX Classes
 90
        0
280
     0
281
     0
  0
CLASS
  1
LONG_TRANSACTION
  2
AcDbLongTransaction
  3
ObjectDBX Classes
 90
    32768
280
     0
281
     0
  0
CLASS
  1
LWPOLYLINE
  2
AcDbPolyline
  3
ObjectDBX Classes
 90
    32768
280
     0
281
     1
  0
CLASS
  1
HATCH
  2
AcDbHatch
  3
ObjectDBX Classes
 90
    32768
280
     0
281
     1
  0
CLASS
  1
XRECORD
  2
AcDbXrecord
  3
ObjectDBX Classes
 90
        0
280
     0
281
     0
  0
CLASS
  1
TABLESTYLE
  2
AcDbTableStyle
  3
ObjectDBX Classes
 90
     2047
280
     0
281
     0
  0
CLASS
  1
MATERIAL
  2
AcDbMaterial
  3
ObjectDBX Classes
 90
    32768
280
     0
281
     0
  0
CLASS
  1
VISUALSTYLE
  2
AcDbVisualStyle
  3
ObjectDBX Classes
 90
     4095
280
     1
281
     0
  0
CLASS
  1
SCALE
  2
AcDbScale
  3
ObjectDBX Classes
 90
    33921
280
     1
281
     0
  0
CLASS
  1
MLEADERSTYLE
  2
AcDbMLeaderStyle
  3
ACDB_MLEADERSTYLE_CLASS
 90
    36863
280
     1
281
     0
  0
CLASS
  1
PLOTSETTINGS
  2
AcDbPlotSettings
  3
ObjectDBX Classes
 90
    32768
280
     0
281
     0
  0
CLASS
  1
DIMASSOC
  2
AcDbDimAssoc
  3
"AcDbDimAssoc|Product Desc:     AcDim ARX App For Dimension|Company:          Autodesk, Inc.|WEB Address:      www.autodesk.com"
 90
    32768
280
     0
281
     0
  0
CLASS
  1
SORTENTSTABLE
  2
AcDbSortentsTable
  3
ObjectDBX Classes
 90
        0
280
     0
281
     0
  0
CLASS
  1
CELLSTYLEMAP
  2
AcDbCellStyleMap
  3
ObjectDBX Classes
 90
     1152
280
     1
281
     0
  0
CLASS
  1
AEC_REFEDIT_STATUS_TRACKER
  2
AecDbRefEditStatusTracker
  3
AecArchBase50|Product Desc: Autodesk Architectural Desktop 2007 |Company: Autodesk,Inc. |WEB Address: www.autodesk.com
 90
    32897
280
     1
281
     0
  0
CLASS
  1
NPOCOLLECTION
  2
AcDbImpNonPersistentObjectsCollection
  3
ObjectDBX Classes
 90
    33921
280
     1
281
     0
  0
ENDSEC
  0
SECTION
  2
TABLES
  0
TABLE
  2
VPORT
  5
23
102
{ACAD_XDICTIONARY
360
25
102
}
330
0
100
AcDbSymbolTable
 70
     2
  0
VPORT
  5
106
330
23
100
AcDbSymbolTableRecord
100
AcDbViewportTableRecord
  2
*Active
 70
     0
 10
0.0
 20
0.0
 11
1.0
 21
1.0
 12
8909.250448575461
 22
-1288.820387047624
 13
0.0
 23
0.0
 14
5.0
 24
5.0
 15
10.0
 25
10.0
 16
0.0
 26
0.0
 36
1.0
 17
0.0
 27
0.0
 37
0.0
 40
1021.640777475339
 41
2.573816155988858
 42
50.0
 43
0.0
 44
0.0
 50
0.0
 51
0.0
 71
     0
 72
   100
 73
     1
 74
     1
 75
     0
 76
     0
 77
     0
 78
     1
281
     0
 65
     1
110
0.0
120
0.0
130
0.0
111
1.0
121
0.0
131
0.0
112
0.0
122
1.0
132
0.0
 79
     0
146
0.0
  0
ENDTAB
  0
TABLE
  2
LTYPE
  5
1E
330
0
100
AcDbSymbolTable
 70
     2
  0
LTYPE
  5
1F
330
1E
100
AcDbSymbolTableRecord
100
AcDbLinetypeTableRecord
  2
BYBLOCK
 70
     0
  3

 72
    65
 73
     0
 40
0.0
  0
LTYPE
  5
20
330
1E
100
AcDbSymbolTableRecord
100
AcDbLinetypeTableRecord
  2
BYLAYER
 70
     0
  3

 72
    65
 73
     0
 40
0.0
  0
LTYPE
  5
D
330
1E
100
AcDbSymbolTableRecord
100
AcDbLinetypeTableRecord
  2
CONTINUOUS
 70
     0
  3
Solid line
 72
    65
 73
     0
 40
0.0
  0
LTYPE
  5
4B
330
1E
100
AcDbSymbolTableRecord
100
AcDbLinetypeTableRecord
  2
CENTER
 70
     0
  3
Center ____ _ ____ _ ____ _ ____ _ ____ _ ____
 72
    65
 73
     4
 40
50.8
 49
31.75
 74
     0
 49
-6.349999999999999
 74
     0
 49
6.349999999999999
 74
     0
 49
-6.349999999999999
 74
     0
  0
ENDTAB
  0
TABLE
  2
LAYER
  5
18
102
{ACAD_XDICTIONARY
360
19
102
}
330
0
100
AcDbSymbolTable
 70
     6
  0
LAYER
  5
7
102
{ACAD_XDICTIONARY
360
8
102
}
330
18
100
AcDbSymbolTableRecord
100
AcDbLayerTableRecord
  2
0
 70
     0
 62
     7
  6
CONTINUOUS
370
    -3
390
A
  0
LAYER
  5
61
102
{ACAD_XDICTIONARY
360
62
102
}
330
18
100
AcDbSymbolTableRecord
100
AcDbLayerTableRecord
  2
ANCON-DSD
 70
     0
 62
     3
  6
CONTINUOUS
370
    -3
390
A
  0
LAYER
  5
35
102
{ACAD_XDICTIONARY
360
36
102
}
330
18
100
AcDbSymbolTableRecord
100
AcDbLayerTableRecord
  2
ANCON-CONCRETE
 70
     0
 62
     2
  6
CONTINUOUS
370
    -3
390
A
  0
LAYER
  5
D9
102
{ACAD_XDICTIONARY
360
DA
102
}
330
18
100
AcDbSymbolTableRecord
100
AcDbLayerTableRecord
  2
ANCON-TEXT
 70
     0
 62
     6
  6
CONTINUOUS
370
    -3
390
A
  0
LAYER
  5
48
102
{ACAD_XDICTIONARY
360
49
102
}
330
18
100
AcDbSymbolTableRecord
100
AcDbLayerTableRecord
  2
CENTRE
 70
     0
 62
     1
  6
CENTER
370
    -3
390
A
  0
LAYER
  5
3E
330
18
100
AcDbSymbolTableRecord
100
AcDbLayerTableRecord
  2
ANCON-HLD
 70
     0
 62
     3
  6
CONTINUOUS
370
    -3
390
A
1001
AcAecLayerStandard
1000

1000

  0
ENDTAB
  0
TABLE
  2
STYLE
  5
1B
330
0
100
AcDbSymbolTable
 70
     2
  0
STYLE
  5
1C
330
1B
100
AcDbSymbolTableRecord
100
AcDbTextStyleTableRecord
  2
STANDARD
 70
     0
 40
0.0
 41
1.0
 50
0.0
 71
     0
 42
6.0
  3
txt.shx
  4

  0
STYLE
  5
2D
330
1B
100
AcDbSymbolTableRecord
100
AcDbTextStyleTableRecord
  2
ROMANS
 70
     0
 40
0.0
 41
1.0
 50
0.0
 71
     0
 42
5.0
  3
romans
  4

  0
ENDTAB
  0
TABLE
  2
VIEW
  5
21
330
0
100
AcDbSymbolTable
 70
     0
  0
ENDTAB
  0
TABLE
  2
UCS
  5
22
330
0
100
AcDbSymbolTable
 70
     0
  0
ENDTAB
  0
TABLE
  2
APPID
  5
2A
330
0
100
AcDbSymbolTable
 70
     3
  0
APPID
  5
29
330
2A
100
AcDbSymbolTableRecord
100
AcDbRegAppTableRecord
  2
ACAD
 70
     0
  0
APPID
  5
11
330
2A
100
AcDbSymbolTableRecord
100
AcDbRegAppTableRecord
  2
ACAD_PSEXT
 70
     0
  0
APPID
  5
3F
330
2A
100
AcDbSymbolTableRecord
100
AcDbRegAppTableRecord
  2
AcAecLayerStandard
 70
     0
  0
ENDTAB
  0
TABLE
  2
DIMSTYLE
  5
2B
330
0
100
AcDbSymbolTable
 70
     1
100
AcDbDimStyleTable
 71
     1
340
2C
  0
DIMSTYLE
105
2C
330
2B
100
AcDbSymbolTableRecord
100
AcDbDimStyleTableRecord
  2
1-2
 70
     0
 40
0.0
 41
4.0
 42
3.0
 43
10.0
 44
3.0
 46
1.25
 73
     0
 74
     0
 77
     1
 78
    12
140
3.0
141
-3.0
143
0.039
145
1.5
146
0.75
147
1.5
271
     2
272
     2
279
     2
284
    12
285
    12
286
    12
340
2D
  0
ENDTAB
  0
TABLE
  2
BLOCK_RECORD
  5
1
330
0
100
AcDbSymbolTable
 70
     0
  0
BLOCK_RECORD
  5
2
102
{ACAD_XDICTIONARY
360
3
102
}
330
1
100
AcDbSymbolTableRecord
100
AcDbBlockTableRecord
  2
*MODEL_SPACE
340
F
  0
BLOCK_RECORD
  5
12
102
{ACAD_XDICTIONARY
360
13
102
}
330
1
100
AcDbSymbolTableRecord
100
AcDbBlockTableRecord
  2
*PAPER_SPACE
340
17
  0
ENDTAB
  0
ENDSEC
  0
SECTION
  2
BLOCKS
  0
BLOCK
  5
6
330
2
100
AcDbEntity
  8
0
100
AcDbBlockBegin
  2
*MODEL_SPACE
 70
     0
 10
0.0
 20
0.0
 30
0.0
  3
*MODEL_SPACE
  1

  0
ENDBLK
  5
E
330
2
100
AcDbEntity
  8
0
100
AcDbBlockEnd
  0
BLOCK
  5
15
330
12
100
AcDbEntity
 67
     1
  8
0
100
AcDbBlockBegin
  2
*PAPER_SPACE
 70
     0
 10
0.0
 20
0.0
 30
0.0
  3
*PAPER_SPACE
  1

  0
ENDBLK
  5
16
330
12
100
AcDbEntity
 67
     1
  8
0
100
AcDbBlockEnd
  0
ENDSEC
  0
SECTION
  2
ENTITIES
  0
LINE
  5
3D
330
2
100
AcDbEntity
  8
ANCON-HLD
100
AcDbLine
 10
8197.985662909806
 20
-1395.360690745886
 30
0.0
 11
8357.985662909804
 21
-1395.360690745886
 31
0.0
  0
LINE
  5
40
330
2
100
AcDbEntity
  8
ANCON-HLD
100
AcDbLine
 10
8197.985662909806
 20
-1373.360690745886
 30
0.0
 11
8357.985662909804
 21
-1373.360690745886
 31
0.0
  0
LINE
  5
41
330
2
100
AcDbEntity
  8
ANCON-HLD
100
AcDbLine
 10
8197.985662909806
 20
-1166.360690745886
 30
0.0
 11
8357.985662909804
 21
-1166.360690745886
 31
0.0
  0
LINE
  5
42
330
2
100
AcDbEntity
  8
ANCON-HLD
100
AcDbLine
 10
8197.985662909806
 20
-1188.360690745886
 30
0.0
 11
8357.985662909804
 21
-1188.360690745886
 31
0.0
  0
LINE
  5
43
330
2
100
AcDbEntity
  8
ANCON-HLD
100
AcDbLine
 10
8197.985662909806
 20
-1373.360690745886
 30
0.0
 11
8197.985662909806
 21
-1395.360690745886
 31
0.0
  0
LINE
  5
44
330
2
100
AcDbEntity
  8
ANCON-HLD
100
AcDbLine
 10
8197.985662909806
 20
-1188.360690745886
 30
0.0
 11
8197.985662909806
 21
-1166.360690745886
 31
0.0
  0
LINE
  5
45
330
2
100
AcDbEntity
  8
ANCON-HLD
100
AcDbLine
 10
8357.985662909804
 20
-1339.360690745886
 30
0.0
 11
8447.985662909806
 21
-1339.360690745886
 31
0.0
  0
LINE
  5
46
330
2
100
AcDbEntity
  8
ANCON-HLD
100
AcDbLine
 10
8357.985662909804
 20
-1429.360690745886
 30
0.0
 11
8447.985662909806
 21
-1429.360690745886
 31
0.0
  0
LINE
  5
47
330
2
100
AcDbEntity
  8
CENTRE
 48
0.5
100
AcDbLine
 10
8402.985662909804
 20
-1398.110690745886
 30
0.0
 11
8402.985662909804
 21
-1370.610690745886
 31
0.0
  0
CIRCLE
  5
4C
330
2
100
AcDbEntity
  8
ANCON-HLD
100
AcDbCircle
 10
8402.985662909804
 20
-1384.360690745886
 30
0.0
 40
11.0
  0
LINE
  5
4D
330
2
100
AcDbEntity
  8
ANCON-HLD
100
AcDbLine
 10
8357.985662909804
 20
-1339.360690745886
 30
0.0
 11
8357.985662909804
 21
-1429.360690745886
 31
0.0
  0
LINE
  5
4E
330
2
100
AcDbEntity
  8
CENTRE
 48
0.5
100
AcDbLine
 10
8182.481008831812
 20
-1384.360690745886
 30
0.0
 11
8530.485662909805
 21
-1384.360690745886
 31
0.0
  0
LINE
  5
4F
330
2
100
AcDbEntity
  8
ANCON-HLD
100
AcDbLine
 10
8447.985662909806
 20
-1395.360690745886
 30
0.0
 11
8507.985662909804
 21
-1395.360690745886
 31
0.0
  0
LINE
  5
50
330
2
100
AcDbEntity
  8
ANCON-HLD
100
AcDbLine
 10
8447.985662909806
 20
-1373.360690745886
 30
0.0
 11
8507.985662909804
 21
-1373.360690745886
 31
0.0
  0
LINE
  5
51
330
2
100
AcDbEntity
  8
ANCON-HLD
100
AcDbLine
 10
8447.985662909806
 20
-1429.360690745886
 30
0.0
 11
8447.985662909806
 21
-1339.360690745886
 31
0.0
  0
LINE
  5
52
330
2
100
AcDbEntity
  8
ANCON-HLD
100
AcDbLine
 10
8507.985662909804
 20
-1395.360690745886
 30
0.0
 11
8507.985662909804
 21
-1373.360690745886
 31
0.0
  0
LINE
  5
53
330
2
100
AcDbEntity
  8
ANCON-HLD
100
AcDbLine
 10
8360.985662909804
 20
-1166.360690745886
 30
0.0
 11
8444.985662909806
 21
-1166.360690745886
 31
0.0
  0
LINE
  5
54
330
2
100
AcDbEntity
  8
ANCON-HLD
100
AcDbLine
 10
8360.985662909804
 20
-1188.360690745886
 30
0.0
 11
8444.985662909806
 21
-1188.360690745886
 31
0.0
  0
ARC
  5
55
330
2
100
AcDbEntity
  8
ANCON-HLD
100
AcDbCircle
 10
8402.985662909804
 20
-1164.860690745886
 30
0.0
 40
57.0
100
AcDbArc
 50
230.6433010727389
 51
309.3566989272768
  0
ARC
  5
56
330
2
100
AcDbEntity
  8
ANCON-HLD
100
AcDbCircle
 10
8402.985662909804
 20
-1164.860690745886
 30
0.0
 40
60.0
100
AcDbArc
 50
230.6433010727388
 51
309.3566989272768
  0
ARC
  5
57
330
2
100
AcDbEntity
  8
ANCON-HLD
100
AcDbCircle
 10
8402.985662909804
 20
-1189.860690745886
 30
0.0
 40
60.0
100
AcDbArc
 50
50.64330107272319
 51
129.3566989272612
  0
ARC
  5
58
330
2
100
AcDbEntity
  8
ANCON-HLD
100
AcDbCircle
 10
8402.985662909804
 20
-1189.860690745886
 30
0.0
 40
57.0
100
AcDbArc
 50
50.64330107272319
 51
129.356698927261
  0
LINE
  5
59
330
2
100
AcDbEntity
  8
ANCON-HLD
100
AcDbLine
 10
8360.985662909804
 20
-1215.360690745886
 30
0.0
 11
8360.985662909804
 21
-1139.360690745886
 31
0.0
  0
LINE
  5
5A
330
2
100
AcDbEntity
  8
ANCON-HLD
100
AcDbLine
 10
8357.985662909808
 20
-1215.360690745886
 30
0.0
 11
8357.985662909802
 21
-1139.360690745886
 31
0.0
  0
LINE
  5
5B
330
2
100
AcDbEntity
  8
ANCON-HLD
100
AcDbLine
 10
8360.985662909808
 20
-1215.360690745886
 30
0.0
 11
8357.985662909804
 21
-1215.360690745886
 31
0.0
  0
LINE
  5
5C
330
2
100
AcDbEntity
  8
ANCON-HLD
100
AcDbLine
 10
8357.985662909804
 20
-1188.360690745886
 30
0.0
 11
8360.985662909804
 21
-1188.360690745886
 31
0.0
  0
LINE
  5
5D
330
2
100
AcDbEntity
  8
ANCON-HLD
100
AcDbLine
 10
8360.985662909808
 20
-1206.80937648014
 30
0.0
 11
8363.51197869928
 21
-1205.191436885515
 31
0.0
  0
ARC
  5
5E
330
2
100
AcDbEntity
  8
ANCON-HLD
100
AcDbCircle
 10
8376.985662909804
 20
-1196.562425714181
 30
0.0
 40
16.0
100
AcDbArc
 50
212.6368975035302
 51
230.6433010727232
  0
ARC
  5
5F
330
2
100
AcDbEntity
  8
ANCON-HLD
100
AcDbCircle
 10
8376.985662909804
 20
-1196.562425714181
 30
0.0
 40
19.0
100
AcDbArc
 50
212.6368975035302
 51
230.6433010727232
  0
LINE
  5
60
330
2
100
AcDbEntity
  8
ANCON-DSD
 62
     1
 48
0.25
100
AcDbLine
 10
8391.433118846999
 20
-1223.738010026547
 30
0.0
 11
8392.094203063029
 21
-1220.810454841958
 31
0.0
  0
LINE
  5
64
330
2
100
AcDbEntity
  8
ANCON-DSD
 62
     1
 48
0.25
100
AcDbLine
 10
8413.50009374006
 20
-1223.932229953154
 30
0.0
 11
8412.890641021908
 21
-1220.993492284726
 31
0.0
  0
LINE
  5
65
330
2
100
AcDbEntity
  8
ANCON-DSD
 48
0.25
100
AcDbLine
 10
8357.928762828304
 20
-1166.360690745886
 30
0.0
 11
8360.985662909804
 21
-1166.360690745886
 31
0.0
  0
LINE
  5
66
330
2
100
AcDbEntity
  8
ANCON-HLD
100
AcDbLine
 10
8360.985662909808
 20
-1139.360690745886
 30
0.0
 11
8357.985662909804
 21
-1139.360690745886
 31
0.0
  0
LINE
  5
67
330
2
100
AcDbEntity
  8
ANCON-HLD
100
AcDbLine
 10
8360.985662909808
 20
-1147.912005011631
 30
0.0
 11
8363.51197869928
 21
-1149.529944606257
 31
0.0
  0
ARC
  5
68
330
2
100
AcDbEntity
  8
ANCON-HLD
100
AcDbCircle
 10
8376.985662909804
 20
-1158.158955777591
 30
0.0
 40
19.0
100
AcDbArc
 50
129.3566989272768
 51
147.3631024964697
  0
ARC
  5
69
330
2
100
AcDbEntity
  8
ANCON-HLD
100
AcDbCircle
 10
8376.985662909804
 20
-1158.158955777591
 30
0.0
 40
16.0
100
AcDbArc
 50
129.3566989272768
 51
147.3631024964697
  0
LINE
  5
6A
330
2
100
AcDbEntity
  8
ANCON-DSD
 62
     1
 48
0.25
100
AcDbLine
 10
8391.433118846999
 20
-1130.983371465225
 30
0.0
 11
8392.094203063029
 21
-1133.910926649814
 31
0.0
  0
LINE
  5
6B
330
2
100
AcDbEntity
  8
ANCON-DSD
 62
     1
 48
0.25
100
AcDbLine
 10
8413.50009374006
 20
-1130.789151538618
 30
0.0
 11
8412.890641021906
 21
-1133.727889207046
 31
0.0
  0
LINE
  5
6C
330
2
100
AcDbEntity
  8
ANCON-HLD
100
AcDbLine
 10
8444.985662909806
 20
-1196.562425714181
 30
0.0
 11
8444.985662909806
 21
-1158.158955777591
 31
0.0
  0
LINE
  5
6D
330
2
100
AcDbEntity
  8
ANCON-HLD
100
AcDbLine
 10
8447.985662909806
 20
-1196.562425714181
 30
0.0
 11
8447.985662909806
 21
-1158.158955777591
 31
0.0
  0
LINE
  5
6E
330
2
100
AcDbEntity
  8
ANCON-HLD
100
AcDbLine
 10
8507.985662909804
 20
-1188.360690745886
 30
0.0
 11
8507.985662909804
 21
-1166.360690745886
 31
0.0
  0
LINE
  5
6F
330
2
100
AcDbEntity
  8
ANCON-HLD
100
AcDbLine
 10
8447.985662909806
 20
-1188.360690745886
 30
0.0
 11
8507.985662909804
 21
-1188.360690745886
 31
0.0
  0
LINE
  5
70
330
2
100
AcDbEntity
  8
ANCON-DSD
 62
     1
 48
0.25
100
AcDbLine
 10
8444.985662909806
 20
-1188.360690745886
 30
0.0
 11
8447.985662909806
 21
-1188.360690745886
 31
0.0
  0
ARC
  5
71
330
2
100
AcDbEntity
  8
ANCON-HLD
100
AcDbCircle
 10
8428.985662909806
 20
-1196.562425714181
 30
0.0
 40
19.0
100
AcDbArc
 50
309.3566989272768
 51
0.0
  0
ARC
  5
72
330
2
100
AcDbEntity
  8
ANCON-HLD
100
AcDbCircle
 10
8428.985662909806
 20
-1196.562425714181
 30
0.0
 40
16.0
100
AcDbArc
 50
309.3566989272768
 51
0.0
  0
LINE
  5
73
330
2
100
AcDbEntity
  8
ANCON-HLD
100
AcDbLine
 10
8447.985662909806
 20
-1166.360690745886
 30
0.0
 11
8507.985662909804
 21
-1166.360690745886
 31
0.0
  0
ARC
  5
74
330
2
100
AcDbEntity
  8
ANCON-HLD
100
AcDbCircle
 10
8428.985662909806
 20
-1158.158955777591
 30
0.0
 40
16.0
100
AcDbArc
 50
0.0
 51
50.64330107272319
  0
ARC
  5
75
330
2
100
AcDbEntity
  8
ANCON-HLD
100
AcDbCircle
 10
8428.985662909806
 20
-1158.158955777591
 30
0.0
 40
19.0
100
AcDbArc
 50
0.0
 51
50.64330107272319
  0
LINE
  5
76
330
2
100
AcDbEntity
  8
ANCON-DSD
 62
     1
 48
0.25
100
AcDbLine
 10
8444.985662909806
 20
-1166.360690745886
 30
0.0
 11
8447.928762828302
 21
-1166.360690745886
 31
0.0
  0
LINE
  5
77
330
2
100
AcDbEntity
  8
CENTRE
 48
0.5
100
AcDbLine
 10
8186.504187669362
 20
-1177.274346124874
 30
0.0
 11
8521.949556783603
 21
-1177.274346124874
 31
0.0
  0
LINE
  5
78
330
2
100
AcDbEntity
  8
ANCON-CONCRETE
100
AcDbLine
 10
8357.985662909804
 20
-1115.891914684912
 30
0.0
 11
8357.985662909804
 21
-1238.82946680686
 31
0.0
  0
LINE
  5
79
330
2
100
AcDbEntity
  8
ANCON-CONCRETE
100
AcDbLine
 10
8357.985662909804
 20
-1302.891914684912
 30
0.0
 11
8357.985662909804
 21
-1465.82946680686
 31
0.0
  0
LINE
  5
7A
330
2
100
AcDbEntity
  8
ANCON-CONCRETE
100
AcDbLine
 10
8337.985662909806
 20
-1115.891914684912
 30
0.0
 11
8337.985662909806
 21
-1238.82946680686
 31
0.0
  0
LINE
  5
7B
330
2
100
AcDbEntity
  8
ANCON-CONCRETE
100
AcDbLine
 10
8337.985662909806
 20
-1302.891914684912
 30
0.0
 11
8337.985662909806
 21
-1465.82946680686
 31
0.0
  0
LINE
  5
7C
330
2
100
AcDbEntity
  8
ANCON-HLD
100
AcDbLine
 10
8601.355354731639
 20
-1129.774346124873
 30
0.0
 11
8633.65535473164
 21
-1129.774346124873
 31
0.0
  0
LINE
  5
7D
330
2
100
AcDbEntity
  8
ANCON-HLD
100
AcDbLine
 10
8589.355354731639
 20
-1215.274346124874
 30
0.0
 11
8703.355354731639
 21
-1215.274346124874
 31
0.0
  0
LINE
  5
7E
330
2
100
AcDbEntity
  8
ANCON-HLD
100
AcDbLine
 10
8589.355354731639
 20
-1139.274346124873
 30
0.0
 11
8703.355354731639
 21
-1139.274346124874
 31
0.0
  0
LINE
  5
7F
330
2
100
AcDbEntity
  8
ANCON-HLD
100
AcDbLine
 10
8589.355354731639
 20
-1139.274346124873
 30
0.0
 11
8589.355354731639
 21
-1215.274346124874
 31
0.0
  0
LINE
  5
80
330
2
100
AcDbEntity
  8
CENTRE
 48
0.125
100
AcDbLine
 10
8594.355354731638
 20
-1205.274346124874
 30
0.0
 11
8594.355354731638
 21
-1215.274346124874
 31
0.0
  0
LINE
  5
81
330
2
100
AcDbEntity
  8
ANCON-HLD
100
AcDbLine
 10
8601.355354731639
 20
-1215.274346124874
 30
0.0
 11
8601.355354731639
 21
-1224.774346124874
 31
0.0
  0
LINE
  5
82
330
2
100
AcDbEntity
  8
CENTRE
 48
0.125
100
AcDbLine
 10
8599.35535473164
 20
-1210.274346124873
 30
0.0
 11
8589.355354731639
 21
-1210.274346124873
 31
0.0
  0
CIRCLE
  5
83
330
2
100
AcDbEntity
  8
ANCON-HLD
100
AcDbCircle
 10
8594.355354731638
 20
-1210.274346124873
 30
0.0
 40
2.5
  0
LINE
  5
84
330
2
100
AcDbEntity
  8
CENTRE
 48
0.125
100
AcDbLine
 10
8594.355354731638
 20
-1139.774346124873
 30
0.0
 11
8594.355354731638
 21
-1148.774346124874
 31
0.0
  0
LINE
  5
85
330
2
100
AcDbEntity
  8
CENTRE
 48
0.125
100
AcDbLine
 10
8599.35535473164
 20
-1144.274346124873
 30
0.0
 11
8589.355354731639
 21
-1144.274346124873
 31
0.0
  0
LINE
  5
86
330
2
100
AcDbEntity
  8
ANCON-HLD
100
AcDbLine
 10
8601.355354731639
 20
-1139.274346124873
 30
0.0
 11
8601.355354731639
 21
-1129.774346124873
 31
0.0
  0
CIRCLE
  5
87
330
2
100
AcDbEntity
  8
ANCON-HLD
100
AcDbCircle
 10
8594.355354731638
 20
-1144.274346124873
 30
0.0
 40
2.5
  0
LINE
  5
88
330
2
100
AcDbEntity
  8
CENTRE
 48
0.125
100
AcDbLine
 10
8703.355354731639
 20
-1210.274346124873
 30
0.0
 11
8693.35535473164
 21
-1210.274346124873
 31
0.0
  0
LINE
  5
89
330
2
100
AcDbEntity
  8
CENTRE
 48
0.125
100
AcDbLine
 10
8703.355354731639
 20
-1144.274346124873
 30
0.0
 11
8693.35535473164
 21
-1144.274346124873
 31
0.0
  0
CIRCLE
  5
8A
330
2
100
AcDbEntity
  8
ANCON-HLD
100
AcDbCircle
 10
8698.355354731639
 20
-1210.274346124873
 30
0.0
 40
2.5
  0
CIRCLE
  5
8B
330
2
100
AcDbEntity
  8
ANCON-HLD
100
AcDbCircle
 10
8698.355354731639
 20
-1144.274346124873
 30
0.0
 40
2.5
  0
LINE
  5
8C
330
2
100
AcDbEntity
  8
CENTRE
 48
0.5
100
AcDbLine
 10
8646.355354731641
 20
-1230.711846124874
 30
0.0
 11
8646.355354731639
 21
-1123.836846124874
 31
0.0
  0
CIRCLE
  5
8D
330
2
100
AcDbEntity
  8
ANCON-HLD
100
AcDbCircle
 10
8646.355354731639
 20
-1177.274346124874
 30
0.0
 40
11.5
  0
CIRCLE
  5
8E
330
2
100
AcDbEntity
  8
ANCON-HLD
100
AcDbCircle
 10
8646.355354731639
 20
-1177.274346124874
 30
0.0
 40
12.7
  0
LINE
  5
8F
330
2
100
AcDbEntity
  8
ANCON-HLD
100
AcDbLine
 10
8691.355354731639
 20
-1215.274346124874
 30
0.0
 11
8691.355354731639
 21
-1224.774346124875
 31
0.0
  0
LINE
  5
90
330
2
100
AcDbEntity
  8
CENTRE
 48
0.5
100
AcDbLine
 10
8662.230354731638
 20
-1177.274346124874
 30
0.0
 11
8630.480354731638
 21
-1177.274346124874
 31
0.0
  0
LINE
  5
91
330
2
100
AcDbEntity
  8
ANCON-HLD
100
AcDbLine
 10
8691.355354731639
 20
-1139.274346124874
 30
0.0
 11
8691.355354731639
 21
-1129.774346124873
 31
0.0
  0
LINE
  5
92
330
2
100
AcDbEntity
  8
ANCON-HLD
100
AcDbLine
 10
8703.355354731639
 20
-1139.274346124873
 30
0.0
 11
8703.355354731639
 21
-1215.274346124874
 31
0.0
  0
LINE
  5
93
330
2
100
AcDbEntity
  8
CENTRE
 48
0.125
100
AcDbLine
 10
8698.355354731639
 20
-1205.274346124874
 30
0.0
 11
8698.355354731639
 21
-1215.274346124874
 31
0.0
  0
LINE
  5
94
330
2
100
AcDbEntity
  8
CENTRE
 48
0.125
100
AcDbLine
 10
8698.355354731639
 20
-1139.774346124873
 30
0.0
 11
8698.355354731639
 21
-1148.774346124874
 31
0.0
  0
LINE
  5
95
330
2
100
AcDbEntity
  8
CENTRE
100
AcDbLine
 10
8703.355354731639
 20
-1139.274346124873
 30
0.0
 11
8703.355354731639
 21
-1139.274346124873
 31
0.0
  0
LINE
  5
96
330
2
100
AcDbEntity
  8
ANCON-HLD
100
AcDbLine
 10
8247.985662909806
 20
-1371.673343456232
 30
0.0
 11
8187.385662909809
 21
-1371.673343456232
 31
0.0
  0
LINE
  5
97
330
2
100
AcDbEntity
  8
ANCON-HLD
100
AcDbLine
 10
8247.985662909806
 20
-1397.073343456232
 30
0.0
 11
8187.385662909809
 21
-1397.073343456232
 31
0.0
  0
LINE
  5
98
330
2
100
AcDbEntity
  8
CENTRE
 48
0.5
100
AcDbLine
 10
8292.985662909806
 20
-1368.485690745886
 30
0.0
 11
8292.985662909806
 21
-1400.235690745886
 31
0.0
  0
CIRCLE
  5
99
330
2
100
AcDbEntity
  8
ANCON-HLD
100
AcDbCircle
 10
8292.985662909806
 20
-1384.360690745886
 30
0.0
 40
12.5
  0
LINE
  5
9A
330
2
100
AcDbEntity
  8
ANCON-HLD
100
AcDbLine
 10
8337.985662909806
 20
-1441.360690745886
 30
0.0
 11
8337.985662909808
 21
-1327.360690745886
 31
0.0
  0
LINE
  5
9B
330
2
100
AcDbEntity
  8
ANCON-HLD
100
AcDbLine
 10
8247.985662909806
 20
-1339.360690745886
 30
0.0
 11
8247.985662909806
 21
-1429.360690745886
 31
0.0
  0
LINE
  5
9C
330
2
100
AcDbEntity
  8
ANCON-HLD
100
AcDbLine
 10
8334.985662909806
 20
-1327.360690745886
 30
0.0
 11
8334.985662909806
 21
-1441.360690745886
 31
0.0
  0
LINE
  5
9D
330
2
100
AcDbEntity
  8
ANCON-HLD
100
AcDbLine
 10
8334.985662909806
 20
-1339.360690745886
 30
0.0
 11
8247.985662909808
 21
-1339.360690745886
 31
0.0
  0
LINE
  5
9E
330
2
100
AcDbEntity
  8
CENTRE
 48
0.125
100
AcDbLine
 10
8330.905394210056
 20
-1332.360690745886
 30
0.0
 11
8342.065931609559
 21
-1332.360690745886
 31
0.0
  0
LINE
  5
9F
330
2
100
AcDbEntity
  8
ANCON-HLD
100
AcDbLine
 10
8334.985662909808
 20
-1329.860690745886
 30
0.0
 11
8337.985662909808
 21
-1329.860690745886
 31
0.0
  0
LINE
  5
A0
330
2
100
AcDbEntity
  8
ANCON-HLD
100
AcDbLine
 10
8337.985662909808
 20
-1327.360690745886
 30
0.0
 11
8334.985662909808
 21
-1327.360690745886
 31
0.0
  0
LINE
  5
A1
330
2
100
AcDbEntity
  8
ANCON-HLD
100
AcDbLine
 10
8334.985662909808
 20
-1334.860690745886
 30
0.0
 11
8337.985662909808
 21
-1334.860690745885
 31
0.0
  0
LINE
  5
A2
330
2
100
AcDbEntity
  8
ANCON-HLD
100
AcDbLine
 10
8337.985662909806
 20
-1339.360690745886
 30
0.0
 11
8334.985662909806
 21
-1339.360690745886
 31
0.0
  0
LINE
  5
A3
330
2
100
AcDbEntity
  8
CENTRE
 48
0.5
100
AcDbLine
 10
8277.110662909807
 20
-1384.360690745886
 30
0.0
 11
8308.860662909806
 21
-1384.360690745886
 31
0.0
  0
LINE
  5
A4
330
2
100
AcDbEntity
  8
ANCON-HLD
100
AcDbLine
 10
8334.985662909806
 20
-1429.360690745886
 30
0.0
 11
8247.985662909806
 21
-1429.360690745886
 31
0.0
  0
LINE
  5
A5
330
2
100
AcDbEntity
  8
CENTRE
 48
0.125
100
AcDbLine
 10
8330.901169095918
 20
-1436.360690745886
 30
0.0
 11
8342.070156723698
 21
-1436.360690745886
 31
0.0
  0
LINE
  5
A6
330
2
100
AcDbEntity
  8
ANCON-HLD
100
AcDbLine
 10
8334.985662909806
 20
-1433.860690745886
 30
0.0
 11
8337.985662909806
 21
-1433.860690745886
 31
0.0
  0
LINE
  5
A7
330
2
100
AcDbEntity
  8
ANCON-HLD
100
AcDbLine
 10
8334.985662909806
 20
-1438.860690745886
 30
0.0
 11
8337.985662909806
 21
-1438.860690745886
 31
0.0
  0
LINE
  5
A8
330
2
100
AcDbEntity
  8
ANCON-HLD
100
AcDbLine
 10
8337.985662909806
 20
-1441.360690745886
 30
0.0
 11
8334.985662909806
 21
-1441.360690745886
 31
0.0
  0
LINE
  5
A9
330
2
100
AcDbEntity
  8
ANCON-HLD
100
AcDbLine
 10
8337.985662909806
 20
-1429.360690745886
 30
0.0
 11
8334.985662909806
 21
-1429.360690745886
 31
0.0
  0
LINE
  5
AA
330
2
100
AcDbEntity
  8
ANCON-HLD
100
AcDbLine
 10
8172.385662909809
 20
-1397.073343456233
 30
0.0
 11
8172.385662909809
 21
-1371.673343456233
 31
0.0
  0
LINE
  5
AB
330
2
100
AcDbEntity
  8
ANCON-HLD
100
AcDbLine
 10
8187.385662909809
 20
-1398.073343456233
 30
0.0
 11
8187.385662909809
 21
-1370.673343456233
 31
0.0
  0
LINE
  5
AC
330
2
100
AcDbEntity
  8
ANCON-HLD
100
AcDbLine
 10
8187.385662909809
 20
-1370.673343456233
 30
0.0
 11
8173.385662909808
 21
-1370.673343456233
 31
0.0
  0
ARC
  5
AD
330
2
100
AcDbEntity
  8
ANCON-HLD
100
AcDbCircle
 10
8173.385662909808
 20
-1371.673343456233
 30
0.0
 40
1.0
100
AcDbArc
 50
90.0
 51
180.0
  0
LINE
  5
AE
330
2
100
AcDbEntity
  8
ANCON-HLD
100
AcDbLine
 10
8173.385662909808
 20
-1398.073343456233
 30
0.0
 11
8187.385662909809
 21
-1398.073343456233
 31
0.0
  0
ARC
  5
AF
330
2
100
AcDbEntity
  8
ANCON-HLD
100
AcDbCircle
 10
8173.385662909808
 20
-1397.073343456233
 30
0.0
 40
1.0
100
AcDbArc
 50
180.0
 51
270.0
  0
LINE
  5
B0
330
2
100
AcDbEntity
  8
ANCON-HLD
100
AcDbLine
 10
8187.016703855098
 20
-1190.060690745886
 30
0.0
 11
8247.985662909806
 21
-1190.060690745886
 31
0.0
  0
LINE
  5
B1
330
2
100
AcDbEntity
  8
ANCON-HLD
100
AcDbLine
 10
8247.985662909806
 20
-1164.660690745886
 30
0.0
 11
8187.0167038551
 21
-1164.660690745886
 31
0.0
  0
LINE
  5
B2
330
2
100
AcDbEntity
  8
ANCON-HLD
100
AcDbLine
 10
8250.985662909807
 20
-1164.660690745886
 30
0.0
 11
8334.985662909806
 21
-1164.660690745886
 31
0.0
  0
LINE
  5
B3
330
2
100
AcDbEntity
  8
ANCON-HLD
100
AcDbLine
 10
8250.985662909807
 20
-1190.060690745886
 30
0.0
 11
8334.985662909806
 21
-1190.060690745886
 31
0.0
  0
ARC
  5
B4
330
2
100
AcDbEntity
  8
ANCON-HLD
100
AcDbCircle
 10
8292.985662909806
 20
-1189.860690745886
 30
0.0
 40
57.0
100
AcDbArc
 50
50.64330107268137
 51
129.3566989273186
  0
ARC
  5
B5
330
2
100
AcDbEntity
  8
ANCON-HLD
100
AcDbCircle
 10
8292.985662909806
 20
-1189.860690745886
 30
0.0
 40
60.0
100
AcDbArc
 50
50.6433010727388
 51
129.3566989273186
  0
ARC
  5
B6
330
2
100
AcDbEntity
  8
ANCON-HLD
100
AcDbCircle
 10
8292.985662909806
 20
-1164.860690745886
 30
0.0
 40
60.0
100
AcDbArc
 50
230.6433010726814
 51
309.3566989272612
  0
ARC
  5
B7
330
2
100
AcDbEntity
  8
ANCON-HLD
100
AcDbCircle
 10
8292.985662909806
 20
-1164.860690745886
 30
0.0
 40
57.0
100
AcDbArc
 50
230.6433010726814
 51
309.3566989273186
  0
LINE
  5
B8
330
2
100
AcDbEntity
  8
ANCON-HLD
100
AcDbLine
 10
8334.985662909806
 20
-1139.860690745886
 30
0.0
 11
8334.985662909806
 21
-1214.860690745886
 31
0.0
  0
LINE
  5
B9
330
2
100
AcDbEntity
  8
ANCON-HLD
100
AcDbLine
 10
8337.985662909806
 20
-1139.860690745886
 30
0.0
 11
8337.985662909808
 21
-1214.860690745886
 31
0.0
  0
LINE
  5
BA
330
2
100
AcDbEntity
  8
ANCON-HLD
100
AcDbLine
 10
8334.985662909806
 20
-1139.860690745886
 30
0.0
 11
8337.985662909806
 21
-1139.860690745886
 31
0.0
  0
LINE
  5
BB
330
2
100
AcDbEntity
  8
CENTRE
 48
0.125
100
AcDbLine
 10
8330.901169095918
 20
-1144.860690745886
 30
0.0
 11
8342.070156723698
 21
-1144.860690745886
 31
0.0
  0
ARC
  5
BC
330
2
100
AcDbEntity
  8
ANCON-HLD
100
AcDbCircle
 10
8318.985662909808
 20
-1158.158955777591
 30
0.0
 40
19.0
100
AcDbArc
 50
32.63689750358705
 51
50.64330107268137
  0
LINE
  5
BD
330
2
100
AcDbEntity
  8
ANCON-HLD
100
AcDbLine
 10
8334.985662909806
 20
-1147.912005011632
 30
0.0
 11
8332.459347120332
 21
-1149.529944606257
 31
0.0
  0
ARC
  5
BE
330
2
100
AcDbEntity
  8
ANCON-HLD
100
AcDbCircle
 10
8318.985662909808
 20
-1158.158955777591
 30
0.0
 40
16.0
100
AcDbArc
 50
32.63689750358705
 51
50.64330107268137
  0
LINE
  5
BF
330
2
100
AcDbEntity
  8
CENTRE
 48
0.125
100
AcDbLine
 10
8330.901169095918
 20
-1209.860690745886
 30
0.0
 11
8342.070156723698
 21
-1209.860690745886
 31
0.0
  0
LINE
  5
C0
330
2
100
AcDbEntity
  8
ANCON-HLD
100
AcDbLine
 10
8334.985662909806
 20
-1214.860690745886
 30
0.0
 11
8337.985662909806
 21
-1214.860690745886
 31
0.0
  0
ARC
  5
C1
330
2
100
AcDbEntity
  8
ANCON-HLD
100
AcDbCircle
 10
8318.985662909808
 20
-1196.562425714181
 30
0.0
 40
19.0
100
AcDbArc
 50
309.3566989273186
 51
327.3631024964129
  0
LINE
  5
C2
330
2
100
AcDbEntity
  8
ANCON-HLD
100
AcDbLine
 10
8334.985662909806
 20
-1206.809376480141
 30
0.0
 11
8332.459347120332
 21
-1205.191436885515
 31
0.0
  0
ARC
  5
C3
330
2
100
AcDbEntity
  8
ANCON-HLD
100
AcDbCircle
 10
8318.985662909808
 20
-1196.562425714181
 30
0.0
 40
16.0
100
AcDbArc
 50
309.3566989273186
 51
327.3631024964129
  0
LINE
  5
C4
330
2
100
AcDbEntity
  8
CENTRE
 48
0.5
100
AcDbLine
 10
8287.985662909809
 20
-1171.360690745885
 30
0.0
 11
8287.985662909809
 21
-1183.360690745885
 31
0.0
  0
LINE
  5
C5
330
2
100
AcDbEntity
  8
ANCON-HLD
100
AcDbLine
 10
8250.985662909807
 20
-1158.158955777591
 30
0.0
 11
8250.985662909807
 21
-1196.562425714181
 31
0.0
  0
LINE
  5
C6
330
2
100
AcDbEntity
  8
ANCON-HLD
100
AcDbLine
 10
8247.985662909806
 20
-1158.158955777591
 30
0.0
 11
8247.985662909806
 21
-1196.562425714181
 31
0.0
  0
ARC
  5
C7
330
2
100
AcDbEntity
  8
ANCON-HLD
100
AcDbCircle
 10
8266.985662909807
 20
-1158.158955777591
 30
0.0
 40
19.0
100
AcDbArc
 50
129.3566989273186
 51
180.0
  0
ARC
  5
C8
330
2
100
AcDbEntity
  8
ANCON-HLD
100
AcDbCircle
 10
8266.985662909807
 20
-1158.158955777591
 30
0.0
 40
16.0
100
AcDbArc
 50
129.3566989273186
 51
180.0
  0
CIRCLE
  5
C9
330
2
100
AcDbEntity
  8
ANCON-HLD
100
AcDbCircle
 10
8287.985662909809
 20
-1177.360690745886
 30
0.0
 40
3.0
  0
ARC
  5
CA
330
2
100
AcDbEntity
  8
ANCON-HLD
100
AcDbCircle
 10
8266.985662909807
 20
-1196.562425714181
 30
0.0
 40
16.0
100
AcDbArc
 50
180.0
 51
230.6433010726814
  0
ARC
  5
CB
330
2
100
AcDbEntity
  8
ANCON-HLD
100
AcDbCircle
 10
8266.985662909807
 20
-1196.562425714181
 30
0.0
 40
19.0
100
AcDbArc
 50
180.0
 51
230.6433010726814
  0
LINE
  5
CC
330
2
100
AcDbEntity
  8
ANCON-HLD
100
AcDbLine
 10
8187.016703855098
 20
-1191.060690745886
 30
0.0
 11
8187.0167038551
 21
-1163.660690745886
 31
0.0
  0
LINE
  5
CD
330
2
100
AcDbEntity
  8
ANCON-HLD
100
AcDbLine
 10
8172.016703855099
 20
-1190.060690745886
 30
0.0
 11
8172.016703855101
 21
-1164.660690745886
 31
0.0
  0
LINE
  5
CE
330
2
100
AcDbEntity
  8
ANCON-HLD
100
AcDbLine
 10
8187.0167038551
 20
-1163.660690745886
 30
0.0
 11
8173.016703855102
 21
-1163.660690745886
 31
0.0
  0
ARC
  5
CF
330
2
100
AcDbEntity
  8
ANCON-HLD
100
AcDbCircle
 10
8173.016703855102
 20
-1164.660690745886
 30
0.0
 40
1.0
100
AcDbArc
 50
90.0
 51
180.0
  0
LINE
  5
D0
330
2
100
AcDbEntity
  8
ANCON-HLD
100
AcDbLine
 10
8173.016703855099
 20
-1191.060690745886
 30
0.0
 11
8187.016703855098
 21
-1191.060690745886
 31
0.0
  0
ARC
  5
D1
330
2
100
AcDbEntity
  8
ANCON-HLD
100
AcDbCircle
 10
8173.016703855099
 20
-1190.060690745886
 30
0.0
 40
1.0
100
AcDbArc
 50
180.0
 51
270.0
  0
LINE
  5
D2
330
2
100
AcDbEntity
  8
CENTRE
 48
0.5
100
AcDbLine
 10
8349.467138150252
 20
-1177.360690745886
 30
0.0
 11
8155.986544302596
 21
-1177.360690745886
 31
0.0
  0
ELLIPSE
  5
D3
330
2
100
AcDbEntity
  8
ANCON-HLD
100
AcDbEllipse
 10
8646.355354731639
 20
-1129.774346124873
 30
0.0
 11
-12.69999999999982
 21
0.0
 31
0.0
210
0.0
220
0.0
230
1.0
 40
0.1036635455490245
 41
0.0
 42
3.141592653589793
  0
LINE
  5
D4
330
2
100
AcDbEntity
  8
ANCON-HLD
100
AcDbLine
 10
8659.05535473164
 20
-1129.774346124873
 30
0.0
 11
8691.355354731639
 21
-1129.774346124873
 31
0.0
  0
LINE
  5
D5
330
2
100
AcDbEntity
  8
ANCON-HLD
100
AcDbLine
 10
8659.05535473164
 20
-1224.774346124874
 30
0.0
 11
8691.355354731639
 21
-1224.774346124874
 31
0.0
  0
ELLIPSE
  5
D6
330
2
100
AcDbEntity
  8
ANCON-HLD
100
AcDbEllipse
 10
8646.355354731639
 20
-1224.774346124874
 30
0.0
 11
-12.69999999999982
 21
0.0
 31
0.0
210
0.0
220
0.0
230
-1.0
 40
0.1036635455490245
 41
0.0
 42
3.141592653589793
  0
LINE
  5
D7
330
2
100
AcDbEntity
  8
ANCON-HLD
100
AcDbLine
 10
8601.355354731639
 20
-1224.774346124874
 30
0.0
 11
8633.65535473164
 21
-1224.774346124874
 31
0.0
  0
LINE
  5
D8
330
2
100
AcDbEntity
  8
ANCON-TEXT
100
AcDbLine
 10
8382.263653304702
 20
-1490.364598125669
 30
0.0
 11
8382.263653304702
 21
-1543.462844259762
 31
0.0
  0
TEXT
  5
DC
330
2
100
AcDbEntity
  8
ANCON-TEXT
100
AcDbText
 10
8344.341868296298
 20
-1532.647287166664
 30
0.0
 40
5.0
  1
???
  7
ROMANS
 72
     4
 11
8350.770439724868
 21
-1530.147287166664
 31
0.0
100
AcDbText
  0
LINE
  5
DD
330
2
100
AcDbEntity
  8
ANCON-TEXT
100
AcDbLine
 10
8317.393069169902
 20
-1490.364598125669
 30
0.0
 11
8317.393069169902
 21
-1543.462844259762
 31
0.0
  0
TEXT
  5
DE
330
2
100
AcDbEntity
  8
ANCON-TEXT
100
AcDbText
 10
8322.913296867726
 20
-1500.62548378808
 30
0.0
 40
5.0
  1
SERVICEABILITY
  7
ROMANS
 72
     4
 11
8350.770439724868
 21
-1498.125483788079
 31
0.0
100
AcDbText
  0
TEXT
  5
DF
330
2
100
AcDbEntity
  8
ANCON-TEXT
100
AcDbText
 10
8326.008534962964
 20
-1511.568762726658
 30
0.0
 40
5.0
  1
LOAD ( kN )
  7
ROMANS
 72
     4
 11
8350.770439724868
 21
-1509.425905583801
 31
0.0
100
AcDbText
  0
LINE
  5
E0
330
2
100
AcDbEntity
  8
ANCON-TEXT
100
AcDbLine
 10
8256.884975612839
 20
-1490.364598125669
 30
0.0
 11
8256.884975612839
 21
-1543.462844259762
 31
0.0
  0
TEXT
  5
E1
330
2
100
AcDbEntity
  8
ANCON-TEXT
100
AcDbText
 10
8214.315455000006
 20
-1500.630314285211
 30
0.0
 40
5.0
  1
HLD REF:
  7
ROMANS
 72
     4
 11
8232.0535502381
 21
-1498.130314285211
 31
0.0
100
AcDbText
  0
TEXT
  5
E2
330
2
100
AcDbEntity
  8
ANCON-TEXT
100
AcDbText
 10
8216.246630201061
 20
-1532.647287166664
 30
0.0
 40
5.0
  1
HLD 22
  7
ROMANS
 72
     4
 11
8230.770439724869
 21
-1530.147287166664
 31
0.0
100
AcDbText
  0
LINE
  5
E3
330
2
100
AcDbEntity
  8
ANCON-TEXT
100
AcDbLine
 10
8206.88497561284
 20
-1490.364598125669
 30
0.0
 11
8206.88497561284
 21
-1543.462844259762
 31
0.0
  0
LINE
  5
E4
330
2
100
AcDbEntity
  8
ANCON-TEXT
100
AcDbLine
 10
8206.88497561284
 20
-1543.462844259762
 30
0.0
 11
8382.263653304702
 21
-1543.462844259762
 31
0.0
  0
LINE
  5
E5
330
2
100
AcDbEntity
  8
ANCON-TEXT
100
AcDbLine
 10
8206.88497561284
 20
-1516.435359184715
 30
0.0
 11
8382.263653304702
 21
-1516.435359184715
 31
0.0
  0
LINE
  5
E6
330
2
100
AcDbEntity
  8
ANCON-TEXT
100
AcDbLine
 10
8206.88497561284
 20
-1490.364598125669
 30
0.0
 11
8382.263653304702
 21
-1490.364598125669
 31
0.0
  0
TEXT
  5
E7
330
2
100
AcDbEntity
  8
ANCON-TEXT
100
AcDbText
 10
8261.988643977728
 20
-1500.630314285211
 30
0.0
 40
5.0
  1
DESIGN JOINT
  7
ROMANS
 72
     4
 11
8288.060072549157
 21
-1498.130314285211
 31
0.0
100
AcDbText
  0
TEXT
  5
E8
330
2
100
AcDbEntity
  8
ANCON-TEXT
100
AcDbText
 10
8278.389487343916
 20
-1532.647287166664
 30
0.0
 40
5.0
  1
?? MM
  7
ROMANS
 72
     4
 11
8290.77043972487
 21
-1530.147287166664
 31
0.0
100
AcDbText
  0
TEXT
  5
E9
330
2
100
AcDbEntity
  8
ANCON-TEXT
100
AcDbText
 10
8277.464834453919
 20
-1511.52793767283
 30
0.0
 40
5.0
  1
WIDTH
  7
ROMANS
 72
     4
 11
8288.060072549157
 21
-1509.02793767283
 31
0.0
100
AcDbText
  0
LINE
  5
EA
330
2
100
AcDbEntity
  8
ANCON-TEXT
100
AcDbLine
 10
8721.247148662497
 20
-1522.248323899544
 30
0.0
 11
8721.247148662497
 21
-1575.282016485094
 31
0.0
  0
LINE
  5
EB
330
2
100
AcDbEntity
  8
ANCON-TEXT
100
AcDbLine
 10
8586.350049478618
 20
-1492.88181023245
 30
0.0
 11
8586.350049478618
 21
-1504.799785524452
 31
0.0
  0
LINE
  5
EC
330
2
100
AcDbEntity
  8
ANCON-TEXT
100
AcDbLine
 10
8518.760198555856
 20
-1492.88181023245
 30
0.0
 11
8518.760198555856
 21
-1504.799785524452
 31
0.0
  0
LINE
  5
ED
330
2
100
AcDbEntity
  8
ANCON-TEXT
100
AcDbLine
 10
8518.760198555856
 20
-1522.248323899544
 30
0.0
 11
8518.760198555856
 21
-1575.282016485094
 31
0.0
  0
TEXT
  5
EE
330
2
100
AcDbEntity
  8
ANCON-TEXT
100
AcDbText
 10
8524.029660040991
 20
-1571.578966053666
 30
0.0
 40
5.0
  1
LOAD OF ??? kN
  7
ROMANS
 72
     4
 11
8556.648707660039
 21
-1569.078966053665
 31
0.0
100
AcDbText
  0
LINE
  5
EF
330
2
100
AcDbEntity
  8
ANCON-TEXT
100
AcDbLine
 10
8518.760198555856
 20
-1492.88181023245
 30
0.0
 11
8586.350049478618
 21
-1492.88181023245
 31
0.0
  0
LINE
  5
F0
330
2
100
AcDbEntity
  8
ANCON-TEXT
100
AcDbLine
 10
8518.760198555856
 20
-1504.799785524452
 30
0.0
 11
8586.350049478618
 21
-1504.799785524452
 31
0.0
  0
TEXT
  5
F1
330
2
100
AcDbEntity
  8
ANCON-TEXT
100
AcDbText
 10
8523.611451086392
 20
-1501.518920348293
 30
0.0
 40
5.0
  1
ANCON HLD 22
  7
ROMANS
 72
     4
 11
8552.778117753058
 21
-1499.018920348294
 31
0.0
100
AcDbText
  0
TEXT
  5
F2
330
2
100
AcDbEntity
  8
ANCON-TEXT
100
AcDbText
 10
8391.331462874571
 20
-1531.45337481279
 30
0.0
 40
5.0
  1
SPECIFICATION BY DESCRIPTION
  7
ROMANS
 72
     4
 11
8450.974320017428
 21
-1528.95337481279
 31
0.0
100
AcDbText
  0
TEXT
  5
F3
330
2
100
AcDbEntity
  8
ANCON-TEXT
100
AcDbText
 10
8391.187826264943
 20
-1501.518920348293
 30
0.0
 40
5.0
  1
SPECIFICATION BY PRODUCT
  7
ROMANS
 72
     4
 11
8444.640207217323
 21
-1499.018920348294
 31
0.0
100
AcDbText
  0
TEXT
  5
F4
330
2
100
AcDbEntity
  8
ANCON-TEXT
100
AcDbText
 10
8523.051931760695
 20
-1531.489123439314
 30
0.0
 40
5.0
  1
TWO PART STAINLESS STEEL SHEAR CONNECTOR
  7
ROMANS
 72
     4
 11
8615.670979379743
 21
-1528.989123439314
 31
0.0
100
AcDbText
  0
TEXT
  5
F5
330
2
100
AcDbEntity
  8
ANCON-TEXT
100
AcDbText
 10
8522.33074735464
 20
-1541.593835765105
 30
0.0
 40
5.0
  1
COMPRISING SLEEVE AND DOWEL COMPONENT
  7
ROMANS
 72
     4
 11
8610.306937830831
 21
-1539.093835765105
 31
0.0
100
AcDbText
  0
TEXT
  5
F6
330
2
100
AcDbEntity
  8
ANCON-TEXT
100
AcDbText
 10
8522.843879284648
 20
-1561.544040888703
 30
0.0
 40
5.0
  1
AND CAPABLE OF TRANSFERRING A SERVICEABILITY
  7
ROMANS
 72
     4
 11
8620.2248316656
 21
-1559.044040888703
 31
0.0
100
AcDbText
  0
LINE
  5
F7
330
2
100
AcDbEntity
  8
ANCON-TEXT
100
AcDbLine
 10
8518.760198555856
 20
-1575.282016485094
 30
0.0
 11
8721.247148662497
 21
-1575.282016485094
 31
0.0
  0
LINE
  5
F8
330
2
100
AcDbEntity
  8
ANCON-TEXT
100
AcDbLine
 10
8518.760198555856
 20
-1522.248323899544
 30
0.0
 11
8721.247148662497
 21
-1522.248323899544
 31
0.0
  0
TEXT
  5
F9
330
2
100
AcDbEntity
  8
ANCON-TEXT
100
AcDbText
 10
8522.389444114697
 20
-1551.494983474774
 30
0.0
 40
5.0
  1
SUITABLE FOR A DESIGN JOINT WIDTH OF ?? MM
  7
ROMANS
 72
     4
 11
8617.27039649565
 21
-1548.994983474774
 31
0.0
100
AcDbText
  0
ENDSEC
  0
SECTION
  2
OBJECTS
  0
DICTIONARY
  5
C
330
0
100
AcDbDictionary
281
     1
  3
ACAD_COLOR
350
33
  3
ACAD_GROUP
350
2F
  3
ACAD_LAYOUT
350
10
  3
ACAD_MATERIAL
350
32
  3
ACAD_MLINESTYLE
350
30
  3
ACAD_PLOTSETTINGS
350
31
  3
ACAD_PLOTSTYLENAME
350
B
  3
ACAD_TABLESTYLE
350
34
  3
ACAD_VISUALSTYLE
350
28
  3
ACDBHEADERROUNDTRIPXREC
350
107
  3
AcDbVariableDictionary
350
FC
  0
DICTIONARY
  5
25
330
23
100
AcDbDictionary
280
     1
281
     1
  3
ACAD_XREC_ROUNDTRIP
360
26
  0
DICTIONARY
  5
19
330
18
100
AcDbDictionary
280
     1
281
     1
  3
ACAD_LAYERSTATES
360
1A
  0
DICTIONARY
  5
8
330
7
100
AcDbDictionary
280
     1
281
     1
  3
ADSK_XREC_LAYER_RECONCILED
360
9
  0
DICTIONARY
  5
62
330
61
100
AcDbDictionary
280
     1
281
     1
  3
ADSK_XREC_LAYER_RECONCILED
360
63
  0
DICTIONARY
  5
36
330
35
100
AcDbDictionary
280
     1
281
     1
  3
ADSK_XREC_LAYER_RECONCILED
360
37
  0
DICTIONARY
  5
DA
330
D9
100
AcDbDictionary
280
     1
281
     1
  3
ADSK_XREC_LAYER_RECONCILED
360
DB
  0
DICTIONARY
  5
49
330
48
100
AcDbDictionary
280
     1
281
     1
  3
ADSK_XREC_LAYER_RECONCILED
360
4A
  0
DICTIONARY
  5
3
330
2
100
AcDbDictionary
280
     1
281
     1
  3
ACAD_LAYOUTSELFREF
360
4
  3
ACAD_SORTENTS
360
FA
  0
DICTIONARY
  5
13
330
12
100
AcDbDictionary
280
     1
281
     1
  3
ACAD_LAYOUTSELFREF
360
14
  0
DICTIONARY
  5
33
102
{ACAD_REACTORS
330
C
102
}
330
C
100
AcDbDictionary
281
     1
  0
DICTIONARY
  5
2F
102
{ACAD_REACTORS
330
C
102
}
330
C
100
AcDbDictionary
281
     1
  0
DICTIONARY
  5
10
102
{ACAD_REACTORS
330
C
102
}
330
C
100
AcDbDictionary
281
     1
  3
Layout1
350
17
  3
Model
350
F
  0
DICTIONARY
  5
32
102
{ACAD_REACTORS
330
C
102
}
330
C
100
AcDbDictionary
281
     1
  0
DICTIONARY
  5
30
102
{ACAD_REACTORS
330
C
102
}
330
C
100
AcDbDictionary
281
     1
  3
STANDARD
350
38
  0
DICTIONARY
  5
31
102
{ACAD_REACTORS
330
C
102
}
330
C
100
AcDbDictionary
281
     1
  0
ACDBDICTIONARYWDFLT
  5
B
102
{ACAD_REACTORS
330
C
102
}
330
C
100
AcDbDictionary
281
     1
  3
Normal
350
A
100
AcDbDictionaryWithDefault
340
A
  0
DICTIONARY
  5
34
102
{ACAD_REACTORS
330
C
102
}
330
C
100
AcDbDictionary
281
     1
  3
Standard
350
39
  0
DICTIONARY
  5
28
102
{ACAD_REACTORS
330
C
102
}
330
C
100
AcDbDictionary
281
     1
  3
2dWireframe
350
27
  0
DICTIONARY
  5
107
102
{ACAD_REACTORS
330
C
102
}
330
C
100
AcDbDictionary
281
     1
  0
DICTIONARY
  5
FC
102
{ACAD_REACTORS
330
C
102
}
330
C
100
AcDbDictionary
281
     1
  3
CTABLESTYLE
350
FD
  3
DIMASSOC
350
104
  3
HIDETEXT
350
103
  3
PROJECTNAME
350
105
  0
XRECORD
  5
26
102
{ACAD_REACTORS
330
25
102
}
330
25
100
AcDbXrecord
280
     1
102
VTR_0.000_0.000_1.000_1.000_VISUALSTYLE
340
27
102
VTR_0.000_0.000_1.000_1.000_GRIDDISPLAY
 70
     3
102
VTR_0.000_0.000_1.000_1.000_GRIDMAJOR
 70
     5
102
VTR_0.000_0.000_1.000_1.000_DEFAULTLIGHTING
280
     1
102
VTR_0.000_0.000_1.000_1.000_DEFAULTLIGHTINGTYPE
 70
     1
102
VTR_0.000_0.000_1.000_1.000_BRIGHTNESS
141
0.0
102
VTR_0.000_0.000_1.000_1.000_CONTRAST
142
0.0
  0
DICTIONARY
  5
1A
102
{ACAD_REACTORS
330
19
102
}
330
19
100
AcDbDictionary
281
     1
  0
XRECORD
  5
9
102
{ACAD_REACTORS
330
8
102
}
330
8
100
AcDbXrecord
280
     1
290
     1
  0
XRECORD
  5
63
102
{ACAD_REACTORS
330
62
102
}
330
62
100
AcDbXrecord
280
     1
290
     1
  0
XRECORD
  5
37
102
{ACAD_REACTORS
330
36
102
}
330
36
100
AcDbXrecord
280
     1
290
     1
  0
XRECORD
  5
DB
102
{ACAD_REACTORS
330
DA
102
}
330
DA
100
AcDbXrecord
280
     1
290
     1
  0
XRECORD
  5
4A
102
{ACAD_REACTORS
330
49
102
}
330
49
100
AcDbXrecord
280
     1
290
     1
  0
XRECORD
  5
4
102
{ACAD_REACTORS
330
3
102
}
330
3
100
AcDbXrecord
280
     1
340
2
  0
SORTENTSTABLE
  5
FA
102
{ACAD_REACTORS
330
3
102
}
330
3
100
AcDbSortentsTable
330
2
  0
XRECORD
  5
14
102
{ACAD_REACTORS
330
13
102
}
330
13
100
AcDbXrecord
280
     1
340
12
  0
LAYOUT
  5
17
102
{ACAD_XDICTIONARY
360
10A
102
}
102
{ACAD_REACTORS
330
10
102
}
330
10
100
AcDbPlotSettings
  1

  2
None
  4

  6

 40
0.0
 41
0.0
 42
0.0
 43
0.0
 44
0.0
 45
0.0
 46
0.0
 47
0.0
 48
0.0
 49
0.0
140
0.0
141
0.0
142
1.0
143
1.0
 70
   688
 72
     0
 73
     0
 74
     5
  7
Std pen settings.ctb
 75
    16
147
1.0
148
0.0
149
0.0
100
AcDbLayout
  1
Layout1
 70
     1
 71
     1
 10
0.0
 20
0.0
 11
420.0
 21
297.0
 12
0.0
 22
0.0
 32
0.0
 14
1.000000000000000E+20
 24
1.000000000000000E+20
 34
1.000000000000000E+20
 15
-1.000000000000000E+20
 25
-1.000000000000000E+20
 35
-1.000000000000000E+20
146
0.0
 13
0.0
 23
0.0
 33
0.0
 16
1.0
 26
0.0
 36
0.0
 17
0.0
 27
1.0
 37
0.0
 76
     0
330
12
  0
LAYOUT
  5
F
102
{ACAD_XDICTIONARY
360
108
102
}
102
{ACAD_REACTORS
330
10
102
}
330
10
100
AcDbPlotSettings
  1

  2
none_device
  4
Letter_(8.50_x_11.00_Inches)
  6

 40
6.349999904632568
 41
6.349999904632568
 42
6.350006103515625
 43
6.350006103515625
 44
215.8999938964844
 45
279.3999938964844
 46
0.0
 47
0.0
 48
0.0
 49
0.0
140
0.0
141
0.0
142
1.0
143
190.4825914125939
 70
 11952
 72
     0
 73
     1
 74
     0
  7
Std pen settings.ctb
 75
     0
147
0.005249823580119
148
-187605.733827711
149
104251.2692448299
100
AcDbLayout
  1
Model
 70
     1
 71
     0
 10
0.0
 20
0.0
 11
12.0
 21
9.0
 12
0.0
 22
0.0
 32
0.0
 14
0.0
 24
0.0
 34
0.0
 15
0.0
 25
0.0
 35
0.0
146
0.0
 13
0.0
 23
0.0
 33
0.0
 16
1.0
 26
0.0
 36
0.0
 17
0.0
 27
1.0
 37
0.0
 76
     0
330
2
1001
ACAD_PSEXT
1000
None
1000
None
1000
Not applicable
1000
The layout will not be plotted unless a new plotter configuration name is selected.
1070
     0
  0
MLINESTYLE
  5
38
102
{ACAD_REACTORS
330
30
102
}
330
30
100
AcDbMlineStyle
  2
STANDARD
 70
     0
  3

 62
   256
 51
90.0
 52
90.0
 71
     2
 49
0.5
 62
   256
  6
BYLAYER
 49
-0.5
 62
   256
  6
BYLAYER
  0
ACDBPLACEHOLDER
  5
A
102
{ACAD_REACTORS
330
B
102
}
330
B
  0
TABLESTYLE
  5
39
102
{ACAD_XDICTIONARY
360
3A
102
}
102
{ACAD_REACTORS
330
34
102
}
330
34
100
AcDbTableStyle
  3
Standard
 70
     0
 71
     0
 40
0.06
 41
0.06
280
     0
281
     0
  7
STANDARD
140
0.18
170
     2
 62
     0
 63
     7
283
     0
274
    -2
284
     1
 64
     0
275
    -2
285
     1
 65
     0
276
    -2
286
     1
 66
     0
277
    -2
287
     1
 67
     0
278
    -2
288
     1
 68
     0
279
    -2
289
     1
 69
     0
  7
STANDARD
140
0.25
170
     5
 62
     0
 63
     7
283
     0
274
    -2
284
     1
 64
     0
275
    -2
285
     1
 65
     0
276
    -2
286
     1
 66
     0
277
    -2
287
     1
 67
     0
278
    -2
288
     1
 68
     0
279
    -2
289
     1
 69
     0
  7
STANDARD
140
0.18
170
     5
 62
     0
 63
     7
283
     0
274
    -2
284
     1
 64
     0
275
    -2
285
     1
 65
     0
276
    -2
286
     1
 66
     0
277
    -2
287
     1
 67
     0
278
    -2
288
     1
 68
     0
279
    -2
289
     1
 69
     0
  0
ACAD_PROXY_OBJECT
  5
27
102
{ACAD_REACTORS
330
28
102
}
330
28
100
AcDbProxyObject
 90
      499
 91
      512
 95
   983063
 70
     0
 93
      444
310
430C9915DA5C99599C985B59401049028333333333333E3BF0000000000000FB0107901411070040501600405405064090741402480A0340
 94
        0
1001
ACAD
1000
AcDbSavedByObjectVersion
1070
     0
1000
AcRTDxfName
1000
VISUALSTYLE
  0
DICTIONARYVAR
  5
FD
102
{ACAD_REACTORS
330
FC
102
}
330
FC
100
DictionaryVariables
280
     0
  1
STANDARD
  0
DICTIONARYVAR
  5
104
102
{ACAD_REACTORS
330
FC
102
}
330
FC
100
DictionaryVariables
280
     0
  1
1
  0
DICTIONARYVAR
  5
103
102
{ACAD_REACTORS
330
FC
102
}
330
FC
100
DictionaryVariables
280
     0
  1
1
  0
DICTIONARYVAR
  5
105
102
{ACAD_REACTORS
330
FC
102
}
330
FC
100
DictionaryVariables
280
     0
  1

  0
DICTIONARY
  5
10A
330
17
100
AcDbDictionary
280
     1
281
     1
  3
ACAD_XREC_ROUNDTRIP
360
10B
  0
DICTIONARY
  5
108
330
F
100
AcDbDictionary
280
     1
281
     1
  3
ACAD_XREC_ROUNDTRIP
360
109
  0
DICTIONARY
  5
3A
330
39
100
AcDbDictionary
280
     1
281
     1
  3
ACAD_ROUNDTRIP_2008_TABLESTYLE_CELLSTYLEMAP
360
3B
  3
ACAD_XREC_ROUNDTRIP
360
3C
  0
XRECORD
  5
10B
102
{ACAD_REACTORS
330
10A
102
}
330
10A
100
AcDbXrecord
280
     1
102
SHADEPLOT
 70
     0
102
SHADEPLOTRESLEVEL
 70
     2
102
SHADEPLOTCUSTOMDPI
 70
   300
  0
XRECORD
  5
109
102
{ACAD_REACTORS
330
108
102
}
330
108
100
AcDbXrecord
280
     1
102
SHADEPLOT
 70
     0
102
SHADEPLOTRESLEVEL
 70
     2
102
SHADEPLOTCUSTOMDPI
 70
   300
  0
ACAD_PROXY_OBJECT
  5
3B
102
{ACAD_REACTORS
330
3A
102
}
330
3A
100
AcDbProxyObject
 90
      499
 91
      518
 95
   983063
 70
     0
 93
     4020
310
40D054060020000020000003200101A412A5058000000C100000000000000340FE419019018000000C1003FBFFFFFE02B5E8DC0F42A9CFD029018000000C1003FBFFFFFE02B5E8DC0F42A9CFD049018000000C1003FBFFFFFE02B5E8DC0F42A9CFD089018000000C1003FBFFFFFE02B5E8DC0F42A9CFD109018000000C1003
310
FBFFFFFE02B5E8DC0F42A9CFD209018000000C1003FBFFFFFE02B5E8DC0F42A9CFD01405075F5449544C450041501A8000000C800406904A9416000000304000AD7A3703D0AC73F90640640600000030400FEFFFFFF80AD7A3703D0AA73F40A40600000030400FEFFFFFF80AD7A3703D0AA73F41240600000030400FEFFFFF
310
F80AD7A3703D0AA73F42240600000030400FEFFFFFF80AD7A3703D0AA73F44240600000030400FEFFFFFF80AD7A3703D0AA73F48240600000030400FEFFFFFF80AD7A3703D0AA73F409014217D2115051115480105406A0000003200101A412A5028000000C10002B5E8DC0F42B1CFE419019018000000C1003FBFFFFFE02B
310
5E8DC0F42A9CFD029018000000C1003FBFFFFFE02B5E8DC0F42A9CFD049018000000C1003FBFFFFFE02B5E8DC0F42A9CFD089018000000C1003FBFFFFFE02B5E8DC0F42A9CFD109018000000C1003FBFFFFFE02B5E8DC0F42A9CFD209018000000C1003FBFFFFFE02B5E8DC0F42A9CFD03409065F44415441008
340
1C
340
0
340
0
340
0
340
0
340
0
340
0
340
1C
340
0
340
0
340
0
340
0
340
0
340
0
340
1C
340
0
340
0
340
0
340
0
340
0
340
0
 94
        0
1001
ACAD
1000
AcRTDxfName
1000
CELLSTYLEMAP
  0
XRECORD
  5
3C
102
{ACAD_REACTORS
330
3A
102
}
330
3A
100
AcDbXrecord
280
     1
102
ACAD_ROUNDTRIP_PRE2007_TABLESTYLE
 90
        4
 91
        0
  1

 92
        4
 93
        0
  2

 94
        4
 95
        0
  3

  0
ENDSEC
  0
EOF
