  0
SECTION
  2
HEADER
  9
$ACADVER
  1
AC1015
  9
$ACADMAINTVER
 70
    20
  9
$DWGCODEPAGE
  3
ANSI_1252
  9
$INSBASE
 10
9376.706731701721
 20
-2049.615227219114
 30
0.0
  9
$EXTMIN
 10
9097.615852587432
 20
-2594.551850602254
 30
0.0
  9
$EXTMAX
 10
9884.040408594273
 20
-1933.146451158139
 30
0.0
  9
$LIMMIN
 10
0.0
 20
0.0
  9
$LIMMAX
 10
420.0
 20
297.0
  9
$ORTHOMODE
 70
     1
  9
$REGENMODE
 70
     1
  9
$FILLMODE
 70
     1
  9
$QTEXTMODE
 70
     0
  9
$MIRRTEXT
 70
     1
  9
$LTSCALE
 40
0.25
  9
$ATTMODE
 70
     1
  9
$TEXTSIZE
 40
5.0
  9
$TRACEWID
 40
10.0
  9
$TEXTSTYLE
  7
ROMANS
  9
$CLAYER
  8
ANCON-CONCRETE
  9
$CELTYPE
  6
BYLAYER
  9
$CECOLOR
 62
   256
  9
$CELTSCALE
 40
1.0
  9
$DISPSILH
 70
     0
  9
$DIMSCALE
 40
0.0
  9
$DIMASZ
 40
4.0
  9
$DIMEXO
 40
3.0
  9
$DIMDLI
 40
10.0
  9
$DIMRND
 40
0.0
  9
$DIMDLE
 40
1.25
  9
$DIMEXE
 40
3.0
  9
$DIMTP
 40
0.0
  9
$DIMTM
 40
0.0
  9
$DIMTXT
 40
3.0
  9
$DIMCEN
 40
-3.0
  9
$DIMTSZ
 40
0.0
  9
$DIMTOL
 70
     0
  9
$DIMLIM
 70
     0
  9
$DIMTIH
 70
     0
  9
$DIMTOH
 70
     0
  9
$DIMSE1
 70
     0
  9
$DIMSE2
 70
     0
  9
$DIMTAD
 70
     1
  9
$DIMZIN
 70
    12
  9
$DIMBLK
  1

  9
$DIMASO
 70
     1
  9
$DIMSHO
 70
     0
  9
$DIMPOST
  1

  9
$DIMAPOST
  1

  9
$DIMALT
 70
     0
  9
$DIMALTD
 70
     2
  9
$DIMALTF
 40
0.039
  9
$DIMLFAC
 40
1.0
  9
$DIMTOFL
 70
     0
  9
$DIMTVP
 40
1.5
  9
$DIMTIX
 70
     0
  9
$DIMSOXD
 70
     0
  9
$DIMSAH
 70
     0
  9
$DIMBLK1
  1

  9
$DIMBLK2
  1

  9
$DIMSTYLE
  2
1-2
  9
$DIMCLRD
 70
     0
  9
$DIMCLRE
 70
     0
  9
$DIMCLRT
 70
     0
  9
$DIMTFAC
 40
0.75
  9
$DIMGAP
 40
1.5
  9
$DIMJUST
 70
     0
  9
$DIMSD1
 70
     0
  9
$DIMSD2
 70
     0
  9
$DIMTOLJ
 70
     1
  9
$DIMTZIN
 70
    12
  9
$DIMALTZ
 70
    12
  9
$DIMALTTZ
 70
    12
  9
$DIMUPT
 70
     0
  9
$DIMDEC
 70
     2
  9
$DIMTDEC
 70
     2
  9
$DIMALTU
 70
     2
  9
$DIMALTTD
 70
     2
  9
$DIMTXSTY
  7
ROMANS
  9
$DIMAUNIT
 70
     0
  9
$DIMADEC
 70
     0
  9
$DIMALTRND
 40
0.0
  9
$DIMAZIN
 70
     0
  9
$DIMDSEP
 70
    46
  9
$DIMATFIT
 70
     3
  9
$DIMFRAC
 70
     0
  9
$DIMLDRBLK
  1

  9
$DIMLUNIT
 70
     2
  9
$DIMLWD
 70
    -2
  9
$DIMLWE
 70
    -2
  9
$DIMTMOVE
 70
     2
  9
$LUNITS
 70
     2
  9
$LUPREC
 70
     2
  9
$SKETCHINC
 40
1.0
  9
$FILLETRAD
 40
0.0
  9
$AUNITS
 70
     0
  9
$AUPREC
 70
     4
  9
$MENU
  1
acad
  9
$ELEVATION
 40
0.0
  9
$PELEVATION
 40
0.0
  9
$THICKNESS
 40
0.0
  9
$LIMCHECK
 70
     0
  9
$CHAMFERA
 40
0.0
  9
$CHAMFERB
 40
0.0
  9
$CHAMFERC
 40
0.0
  9
$CHAMFERD
 40
0.0
  9
$SKPOLY
 70
     0
  9
$TDCREATE
 40
2449527.571155093
  9
$TDUCREATE
 40
2449527.529488426
  9
$TDUPDATE
 40
2455062.515298206
  9
$TDUUPDATE
 40
2455062.473631540
  9
$TDINDWG
 40
0.8348244444
  9
$TDUSRTIMER
 40
0.8348244444
  9
$USRTIMER
 70
     1
  9
$ANGBASE
 50
0.0
  9
$ANGDIR
 70
     0
  9
$PDMODE
 70
     0
  9
$PDSIZE
 40
0.0
  9
$PLINEWID
 40
0.0
  9
$SPLFRAME
 70
     0
  9
$SPLINETYPE
 70
     6
  9
$SPLINESEGS
 70
     8
  9
$HANDSEED
  5
102
  9
$SURFTAB1
 70
    18
  9
$SURFTAB2
 70
    18
  9
$SURFTYPE
 70
     6
  9
$SURFU
 70
    18
  9
$SURFV
 70
    18
  9
$UCSBASE
  2

  9
$UCSNAME
  2

  9
$UCSORG
 10
0.0
 20
0.0
 30
0.0
  9
$UCSXDIR
 10
1.0
 20
0.0
 30
0.0
  9
$UCSYDIR
 10
0.0
 20
1.0
 30
0.0
  9
$UCSORTHOREF
  2

  9
$UCSORTHOVIEW
 70
     0
  9
$UCSORGTOP
 10
0.0
 20
0.0
 30
0.0
  9
$UCSORGBOTTOM
 10
0.0
 20
0.0
 30
0.0
  9
$UCSORGLEFT
 10
0.0
 20
0.0
 30
0.0
  9
$UCSORGRIGHT
 10
0.0
 20
0.0
 30
0.0
  9
$UCSORGFRONT
 10
0.0
 20
0.0
 30
0.0
  9
$UCSORGBACK
 10
0.0
 20
0.0
 30
0.0
  9
$PUCSBASE
  2

  9
$PUCSNAME
  2

  9
$PUCSORG
 10
0.0
 20
0.0
 30
0.0
  9
$PUCSXDIR
 10
1.0
 20
0.0
 30
0.0
  9
$PUCSYDIR
 10
0.0
 20
1.0
 30
0.0
  9
$PUCSORTHOREF
  2

  9
$PUCSORTHOVIEW
 70
     0
  9
$PUCSORGTOP
 10
0.0
 20
0.0
 30
0.0
  9
$PUCSORGBOTTOM
 10
0.0
 20
0.0
 30
0.0
  9
$PUCSORGLEFT
 10
0.0
 20
0.0
 30
0.0
  9
$PUCSORGRIGHT
 10
0.0
 20
0.0
 30
0.0
  9
$PUCSORGFRONT
 10
0.0
 20
0.0
 30
0.0
  9
$PUCSORGBACK
 10
0.0
 20
0.0
 30
0.0
  9
$USERI1
 70
     0
  9
$USERI2
 70
     0
  9
$USERI3
 70
     0
  9
$USERI4
 70
     0
  9
$USERI5
 70
     0
  9
$USERR1
 40
0.0
  9
$USERR2
 40
0.0
  9
$USERR3
 40
0.0
  9
$USERR4
 40
0.0
  9
$USERR5
 40
0.0
  9
$WORLDVIEW
 70
     1
  9
$SHADEDGE
 70
     3
  9
$SHADEDIF
 70
    70
  9
$TILEMODE
 70
     1
  9
$MAXACTVP
 70
    16
  9
$PINSBASE
 10
0.0
 20
0.0
 30
0.0
  9
$PLIMCHECK
 70
     0
  9
$PEXTMIN
 10
1.000000000000000E+20
 20
1.000000000000000E+20
 30
1.000000000000000E+20
  9
$PEXTMAX
 10
-1.000000000000000E+20
 20
-1.000000000000000E+20
 30
-1.000000000000000E+20
  9
$PLIMMIN
 10
0.0
 20
0.0
  9
$PLIMMAX
 10
420.0
 20
297.0
  9
$UNITMODE
 70
     0
  9
$VISRETAIN
 70
     0
  9
$PLINEGEN
 70
     0
  9
$PSLTSCALE
 70
     1
  9
$TREEDEPTH
 70
  3020
  9
$CMLSTYLE
  2
STANDARD
  9
$CMLJUST
 70
     0
  9
$CMLSCALE
 40
1.0
  9
$PROXYGRAPHICS
 70
     1
  9
$MEASUREMENT
 70
     0
  9
$CELWEIGHT
370
    -1
  9
$ENDCAPS
280
     0
  9
$JOINSTYLE
280
     0
  9
$LWDISPLAY
290
     0
  9
$INSUNITS
 70
     0
  9
$HYPERLINKBASE
  1

  9
$STYLESHEET
  1

  9
$XEDIT
290
     1
  9
$CEPSNTYPE
380
     0
  9
$PSTYLEMODE
290
     1
  9
$FINGERPRINTGUID
  2
{9810DD6E-030C-46A5-AA1F-38A08F0DD075}
  9
$VERSIONGUID
  2
{3D0EA16E-D295-42DB-BB14-F5DEA7F09795}
  9
$EXTNAMES
290
     1
  9
$PSVPSCALE
 40
0.0
  9
$OLESTARTUP
290
     0
  0
ENDSEC
  0
SECTION
  2
CLASSES
  0
CLASS
  1
DICTIONARYVAR
  2
AcDbDictionaryVar
  3
ObjectDBX Classes
 90
        0
280
     0
281
     0
  0
CLASS
  1
LWPOLYLINE
  2
AcDbPolyline
  3
ObjectDBX Classes
 90
        0
280
     0
281
     1
  0
CLASS
  1
XRECORD
  2
AcDbXrecord
  3
ObjectDBX Classes
 90
        0
280
     0
281
     0
  0
CLASS
  1
ACDBDICTIONARYWDFLT
  2
AcDbDictionaryWithDefault
  3
ObjectDBX Classes
 90
        0
280
     0
281
     0
  0
CLASS
  1
ACDBPLACEHOLDER
  2
AcDbPlaceHolder
  3
ObjectDBX Classes
 90
        0
280
     0
281
     0
  0
CLASS
  1
LAYOUT
  2
AcDbLayout
  3
ObjectDBX Classes
 90
        0
280
     0
281
     0
  0
CLASS
  1
LONG_TRANSACTION
  2
AcDbLongTransaction
  3
ObjectDBX Classes
 90
    32768
280
     0
281
     0
  0
CLASS
  1
LWPOLYLINE
  2
AcDbPolyline
  3
ObjectDBX Classes
 90
        0
280
     0
281
     1
  0
CLASS
  1
HATCH
  2
AcDbHatch
  3
ObjectDBX Classes
 90
    32768
280
     0
281
     1
  0
CLASS
  1
XRECORD
  2
AcDbXrecord
  3
ObjectDBX Classes
 90
        0
280
     0
281
     0
  0
CLASS
  1
TABLESTYLE
  2
AcDbTableStyle
  3
ObjectDBX Classes
 90
     2047
280
     0
281
     0
  0
CLASS
  1
MATERIAL
  2
AcDbMaterial
  3
ObjectDBX Classes
 90
    32768
280
     0
281
     0
  0
CLASS
  1
VISUALSTYLE
  2
AcDbVisualStyle
  3
ObjectDBX Classes
 90
     4095
280
     1
281
     0
  0
CLASS
  1
SCALE
  2
AcDbScale
  3
ObjectDBX Classes
 90
    33921
280
     1
281
     0
  0
CLASS
  1
MLEADERSTYLE
  2
AcDbMLeaderStyle
  3
ACDB_MLEADERSTYLE_CLASS
 90
    36863
280
     1
281
     0
  0
CLASS
  1
PLOTSETTINGS
  2
AcDbPlotSettings
  3
ObjectDBX Classes
 90
    32768
280
     0
281
     0
  0
CLASS
  1
DIMASSOC
  2
AcDbDimAssoc
  3
"AcDbDimAssoc|Product Desc:     AcDim ARX App For Dimension|Company:          Autodesk, Inc.|WEB Address:      www.autodesk.com"
 90
    32768
280
     0
281
     0
  0
CLASS
  1
SORTENTSTABLE
  2
AcDbSortentsTable
  3
ObjectDBX Classes
 90
        0
280
     0
281
     0
  0
CLASS
  1
CELLSTYLEMAP
  2
AcDbCellStyleMap
  3
ObjectDBX Classes
 90
     1152
280
     1
281
     0
  0
CLASS
  1
AEC_REFEDIT_STATUS_TRACKER
  2
AecDbRefEditStatusTracker
  3
AecArchBase50|Product Desc: Autodesk Architectural Desktop 2007 |Company: Autodesk,Inc. |WEB Address: www.autodesk.com
 90
    32897
280
     1
281
     0
  0
CLASS
  1
NPOCOLLECTION
  2
AcDbImpNonPersistentObjectsCollection
  3
ObjectDBX Classes
 90
    33921
280
     1
281
     0
  0
ENDSEC
  0
SECTION
  2
TABLES
  0
TABLE
  2
VPORT
  5
23
102
{ACAD_XDICTIONARY
360
25
102
}
330
0
100
AcDbSymbolTable
 70
     2
  0
VPORT
  5
FC
330
23
100
AcDbSymbolTableRecord
100
AcDbViewportTableRecord
  2
*Active
 70
     0
 10
0.0
 20
0.0
 11
1.0
 21
1.0
 12
10564.79187111824
 22
-2303.280156479093
 13
0.0
 23
0.0
 14
5.0
 24
5.0
 15
10.0
 25
10.0
 16
0.0
 26
0.0
 36
1.0
 17
0.0
 27
0.0
 37
0.0
 40
1554.641033938678
 41
2.573816155988858
 42
50.0
 43
0.0
 44
0.0
 50
0.0
 51
0.0
 71
     0
 72
   100
 73
     1
 74
     1
 75
     0
 76
     0
 77
     0
 78
     1
281
     0
 65
     1
110
0.0
120
0.0
130
0.0
111
1.0
121
0.0
131
0.0
112
0.0
122
1.0
132
0.0
 79
     0
146
0.0
  0
ENDTAB
  0
TABLE
  2
LTYPE
  5
1E
330
0
100
AcDbSymbolTable
 70
     2
  0
LTYPE
  5
1F
330
1E
100
AcDbSymbolTableRecord
100
AcDbLinetypeTableRecord
  2
BYBLOCK
 70
     0
  3

 72
    65
 73
     0
 40
0.0
  0
LTYPE
  5
20
330
1E
100
AcDbSymbolTableRecord
100
AcDbLinetypeTableRecord
  2
BYLAYER
 70
     0
  3

 72
    65
 73
     0
 40
0.0
  0
LTYPE
  5
D
330
1E
100
AcDbSymbolTableRecord
100
AcDbLinetypeTableRecord
  2
CONTINUOUS
 70
     0
  3
Solid line
 72
    65
 73
     0
 40
0.0
  0
LTYPE
  5
45
330
1E
100
AcDbSymbolTableRecord
100
AcDbLinetypeTableRecord
  2
CENTER
 70
     0
  3
Center ____ _ ____ _ ____ _ ____ _ ____ _ ____
 72
    65
 73
     4
 40
50.8
 49
31.75
 74
     0
 49
-6.349999999999999
 74
     0
 49
6.349999999999999
 74
     0
 49
-6.349999999999999
 74
     0
  0
ENDTAB
  0
TABLE
  2
LAYER
  5
18
102
{ACAD_XDICTIONARY
360
19
102
}
330
0
100
AcDbSymbolTable
 70
     5
  0
LAYER
  5
7
102
{ACAD_XDICTIONARY
360
8
102
}
330
18
100
AcDbSymbolTableRecord
100
AcDbLayerTableRecord
  2
0
 70
     0
 62
     7
  6
CONTINUOUS
370
    -3
390
A
  0
LAYER
  5
35
102
{ACAD_XDICTIONARY
360
36
102
}
330
18
100
AcDbSymbolTableRecord
100
AcDbLayerTableRecord
  2
ANCON-CONCRETE
 70
     0
 62
     2
  6
CONTINUOUS
370
    -3
390
A
  0
LAYER
  5
CF
102
{ACAD_XDICTIONARY
360
D0
102
}
330
18
100
AcDbSymbolTableRecord
100
AcDbLayerTableRecord
  2
ANCON-TEXT
 70
     0
 62
     6
  6
CONTINUOUS
370
    -3
390
A
  0
LAYER
  5
42
102
{ACAD_XDICTIONARY
360
43
102
}
330
18
100
AcDbSymbolTableRecord
100
AcDbLayerTableRecord
  2
CENTRE
 70
     0
 62
     1
  6
CENTER
370
    -3
390
A
  0
LAYER
  5
3E
330
18
100
AcDbSymbolTableRecord
100
AcDbLayerTableRecord
  2
ANCON-HLD
 70
     0
 62
     3
  6
CONTINUOUS
370
    -3
390
A
1001
AcAecLayerStandard
1000

1000

  0
ENDTAB
  0
TABLE
  2
STYLE
  5
1B
330
0
100
AcDbSymbolTable
 70
     2
  0
STYLE
  5
1C
330
1B
100
AcDbSymbolTableRecord
100
AcDbTextStyleTableRecord
  2
STANDARD
 70
     0
 40
0.0
 41
1.0
 50
0.0
 71
     0
 42
6.0
  3
txt.shx
  4

  0
STYLE
  5
2D
330
1B
100
AcDbSymbolTableRecord
100
AcDbTextStyleTableRecord
  2
ROMANS
 70
     0
 40
0.0
 41
1.0
 50
0.0
 71
     0
 42
5.0
  3
romans
  4

  0
ENDTAB
  0
TABLE
  2
VIEW
  5
21
330
0
100
AcDbSymbolTable
 70
     0
  0
ENDTAB
  0
TABLE
  2
UCS
  5
22
330
0
100
AcDbSymbolTable
 70
     0
  0
ENDTAB
  0
TABLE
  2
APPID
  5
2A
330
0
100
AcDbSymbolTable
 70
     3
  0
APPID
  5
29
330
2A
100
AcDbSymbolTableRecord
100
AcDbRegAppTableRecord
  2
ACAD
 70
     0
  0
APPID
  5
11
330
2A
100
AcDbSymbolTableRecord
100
AcDbRegAppTableRecord
  2
ACAD_PSEXT
 70
     0
  0
APPID
  5
3F
330
2A
100
AcDbSymbolTableRecord
100
AcDbRegAppTableRecord
  2
AcAecLayerStandard
 70
     0
  0
ENDTAB
  0
TABLE
  2
DIMSTYLE
  5
2B
330
0
100
AcDbSymbolTable
 70
     1
100
AcDbDimStyleTable
 71
     1
340
2C
  0
DIMSTYLE
105
2C
330
2B
100
AcDbSymbolTableRecord
100
AcDbDimStyleTableRecord
  2
1-2
 70
     0
 40
0.0
 41
4.0
 42
3.0
 43
10.0
 44
3.0
 46
1.25
 73
     0
 74
     0
 77
     1
 78
    12
140
3.0
141
-3.0
143
0.039
145
1.5
146
0.75
147
1.5
271
     2
272
     2
279
     2
284
    12
285
    12
286
    12
340
2D
  0
ENDTAB
  0
TABLE
  2
BLOCK_RECORD
  5
1
330
0
100
AcDbSymbolTable
 70
     0
  0
BLOCK_RECORD
  5
2
102
{ACAD_XDICTIONARY
360
3
102
}
330
1
100
AcDbSymbolTableRecord
100
AcDbBlockTableRecord
  2
*MODEL_SPACE
340
F
  0
BLOCK_RECORD
  5
12
102
{ACAD_XDICTIONARY
360
13
102
}
330
1
100
AcDbSymbolTableRecord
100
AcDbBlockTableRecord
  2
*PAPER_SPACE
340
17
  0
ENDTAB
  0
ENDSEC
  0
SECTION
  2
BLOCKS
  0
BLOCK
  5
6
330
2
100
AcDbEntity
  8
0
100
AcDbBlockBegin
  2
*MODEL_SPACE
 70
     0
 10
0.0
 20
0.0
 30
0.0
  3
*MODEL_SPACE
  1

  0
ENDBLK
  5
E
330
2
100
AcDbEntity
  8
0
100
AcDbBlockEnd
  0
BLOCK
  5
15
330
12
100
AcDbEntity
 67
     1
  8
0
100
AcDbBlockBegin
  2
*PAPER_SPACE
 70
     0
 10
0.0
 20
0.0
 30
0.0
  3
*PAPER_SPACE
  1

  0
ENDBLK
  5
16
330
12
100
AcDbEntity
 67
     1
  8
0
100
AcDbBlockEnd
  0
ENDSEC
  0
SECTION
  2
ENTITIES
  0
LINE
  5
3D
330
2
100
AcDbEntity
  8
ANCON-HLD
100
AcDbLine
 10
9146.706731701723
 20
-2294.042250961021
 30
0.0
 11
9146.706731701723
 21
-2336.042250961022
 31
0.0
  0
LINE
  5
40
330
2
100
AcDbEntity
  8
ANCON-HLD
100
AcDbLine
 10
9146.706731701723
 20
-2070.615227219114
 30
0.0
 11
9146.706731701723
 21
-2028.615227219114
 31
0.0
  0
LINE
  5
41
330
2
100
AcDbEntity
  8
CENTRE
 48
0.5
100
AcDbLine
 10
9451.706731701722
 20
-2340.042250961022
 30
0.0
 11
9451.706731701722
 21
-2290.042250961022
 31
0.0
  0
CIRCLE
  5
46
330
2
100
AcDbEntity
  8
ANCON-HLD
100
AcDbCircle
 10
9451.706731701722
 20
-2315.042250961022
 30
0.0
 40
20.0
  0
LINE
  5
47
330
2
100
AcDbEntity
  8
ANCON-HLD
100
AcDbLine
 10
9376.706731701721
 20
-2402.542250961022
 30
0.0
 11
9376.706731701721
 21
-2227.542250961022
 31
0.0
  0
LINE
  5
48
330
2
100
AcDbEntity
  8
ANCON-HLD
100
AcDbLine
 10
9526.706731701722
 20
-2402.542250961022
 30
0.0
 11
9526.706731701722
 21
-2227.542250961022
 31
0.0
  0
LINE
  5
49
330
2
100
AcDbEntity
  8
ANCON-HLD
100
AcDbLine
 10
9616.706731701723
 20
-2336.042250961022
 30
0.0
 11
9616.706731701723
 21
-2294.042250961021
 31
0.0
  0
LINE
  5
4A
330
2
100
AcDbEntity
  8
ANCON-HLD
100
AcDbLine
 10
9526.706731701722
 20
-2336.042250961022
 30
0.0
 11
9616.706731701723
 21
-2336.042250961022
 31
0.0
  0
LINE
  5
4B
330
2
100
AcDbEntity
  8
ANCON-HLD
100
AcDbLine
 10
9376.706731701721
 20
-2402.542250961022
 30
0.0
 11
9526.706731701722
 21
-2402.542250961022
 31
0.0
  0
LINE
  5
4C
330
2
100
AcDbEntity
  8
ANCON-HLD
100
AcDbLine
 10
9526.706731701722
 20
-2070.615227219114
 30
0.0
 11
9616.706731701723
 21
-2070.615227219114
 31
0.0
  0
LINE
  5
4D
330
2
100
AcDbEntity
  8
ANCON-HLD
100
AcDbLine
 10
9526.706731701722
 20
-2028.615227219114
 30
0.0
 11
9616.706731701723
 21
-2028.615227219114
 31
0.0
  0
LINE
  5
4E
330
2
100
AcDbEntity
  8
ANCON-HLD
100
AcDbLine
 10
9526.706731701722
 20
-2294.042250961021
 30
0.0
 11
9616.706731701723
 21
-2294.042250961021
 31
0.0
  0
ARC
  5
4F
330
2
100
AcDbEntity
  8
ANCON-HLD
100
AcDbCircle
 10
9486.706731701723
 20
-2089.387482969632
 30
0.0
 40
35.0
100
AcDbArc
 50
302.5789703927899
 51
0.0
  0
ARC
  5
50
330
2
100
AcDbEntity
  8
ANCON-HLD
100
AcDbCircle
 10
9486.706731701723
 20
-2089.387482969632
 30
0.0
 40
40.0
100
AcDbArc
 50
302.5789703927899
 51
0.0
  0
LINE
  5
51
330
2
100
AcDbEntity
  8
ANCON-HLD
100
AcDbLine
 10
9381.706731701724
 20
-2119.615227219114
 30
0.0
 11
9381.706731701724
 21
-1979.615227219114
 31
0.0
  0
LINE
  5
52
330
2
100
AcDbEntity
  8
ANCON-HLD
100
AcDbLine
 10
9376.706731701721
 20
-2119.615227219114
 30
0.0
 11
9376.706731701721
 21
-1979.615227219114
 31
0.0
  0
LINE
  5
53
330
2
100
AcDbEntity
  8
CENTRE
 48
0.5
100
AcDbLine
 10
9140.319884257431
 20
-2315.042250961022
 30
0.0
 11
9636.193405917426
 21
-2315.042250961022
 31
0.0
  0
ARC
  5
54
330
2
100
AcDbEntity
  8
ANCON-HLD
100
AcDbCircle
 10
9451.706731701722
 20
-2034.615227219114
 30
0.0
 40
105.0
100
AcDbArc
 50
237.4210296072101
 51
302.5789703927899
  0
ARC
  5
55
330
2
100
AcDbEntity
  8
ANCON-HLD
100
AcDbCircle
 10
9451.706731701722
 20
-2034.615227219114
 30
0.0
 40
100.0
100
AcDbArc
 50
237.4210296072101
 51
302.5789703927899
  0
LINE
  5
56
330
2
100
AcDbEntity
  8
ANCON-HLD
100
AcDbLine
 10
9376.706731701721
 20
-2227.542250961022
 30
0.0
 11
9526.706731701722
 21
-2227.542250961022
 31
0.0
  0
LINE
  5
57
330
2
100
AcDbEntity
  8
ANCON-HLD
100
AcDbLine
 10
9376.706731701721
 20
-2119.615227219114
 30
0.0
 11
9381.706731701724
 21
-2119.615227219114
 31
0.0
  0
ARC
  5
58
330
2
100
AcDbEntity
  8
ANCON-HLD
100
AcDbCircle
 10
9416.706731701722
 20
-2089.387482969632
 30
0.0
 40
40.0
100
AcDbArc
 50
208.9550243718493
 51
237.4210296072101
  0
ARC
  5
59
330
2
100
AcDbEntity
  8
ANCON-HLD
100
AcDbCircle
 10
9416.706731701722
 20
-2089.387482969632
 30
0.0
 40
35.0
100
AcDbArc
 50
208.9550243718493
 51
237.4210296072101
  0
LINE
  5
5A
330
2
100
AcDbEntity
  8
ANCON-HLD
100
AcDbLine
 10
9386.081731701722
 20
-2106.331785109288
 30
0.0
 11
9381.706731701724
 21
-2108.752399700668
 31
0.0
  0
LINE
  5
5B
330
2
100
AcDbEntity
  8
ANCON-HLD
100
AcDbLine
 10
9381.706731701724
 20
-2028.615227219114
 30
0.0
 11
9521.706731701723
 21
-2028.615227219114
 31
0.0
  0
LINE
  5
5C
330
2
100
AcDbEntity
  8
ANCON-HLD
100
AcDbLine
 10
9381.706731701724
 20
-2070.615227219114
 30
0.0
 11
9521.706731701723
 21
-2070.615227219114
 31
0.0
  0
ARC
  5
5D
330
2
100
AcDbEntity
  8
ANCON-HLD
100
AcDbCircle
 10
9451.706731701722
 20
-2064.615227219114
 30
0.0
 40
100.0
100
AcDbArc
 50
57.42102960721006
 51
122.5789703927899
  0
ARC
  5
5E
330
2
100
AcDbEntity
  8
ANCON-HLD
100
AcDbCircle
 10
9451.706731701722
 20
-2064.615227219114
 30
0.0
 40
105.0
100
AcDbArc
 50
57.42102960721006
 51
122.5789703927899
  0
ARC
  5
5F
330
2
100
AcDbEntity
  8
ANCON-HLD
100
AcDbCircle
 10
9416.706731701722
 20
-2009.842971468597
 30
0.0
 40
35.0
100
AcDbArc
 50
122.5789703927899
 51
151.0449756281507
  0
ARC
  5
60
330
2
100
AcDbEntity
  8
ANCON-HLD
100
AcDbCircle
 10
9416.706731701722
 20
-2009.842971468597
 30
0.0
 40
40.0
100
AcDbArc
 50
122.5789703927899
 51
151.0449756281507
  0
LINE
  5
61
330
2
100
AcDbEntity
  8
ANCON-HLD
100
AcDbLine
 10
9386.081731701722
 20
-1992.89866932894
 30
0.0
 11
9381.706731701724
 21
-1990.478054737561
 31
0.0
  0
LINE
  5
62
330
2
100
AcDbEntity
  8
ANCON-HLD
100
AcDbLine
 10
9376.706731701721
 20
-1979.615227219114
 30
0.0
 11
9381.706731701724
 21
-1979.615227219114
 31
0.0
  0
ARC
  5
63
330
2
100
AcDbEntity
  8
ANCON-HLD
100
AcDbCircle
 10
9486.706731701723
 20
-2009.842971468597
 30
0.0
 40
35.0
100
AcDbArc
 50
0.0
 51
57.42102960721006
  0
ARC
  5
64
330
2
100
AcDbEntity
  8
ANCON-HLD
100
AcDbCircle
 10
9486.706731701723
 20
-2009.842971468597
 30
0.0
 40
40.0
100
AcDbArc
 50
0.0
 51
57.42102960721006
  0
LINE
  5
65
330
2
100
AcDbEntity
  8
ANCON-HLD
100
AcDbLine
 10
9521.706731701723
 20
-2089.387482969632
 30
0.0
 11
9521.706731701723
 21
-2009.842971468597
 31
0.0
  0
LINE
  5
66
330
2
100
AcDbEntity
  8
ANCON-HLD
100
AcDbLine
 10
9526.706731701722
 20
-2089.387482969632
 30
0.0
 11
9526.706731701722
 21
-2009.842971468597
 31
0.0
  0
LINE
  5
67
330
2
100
AcDbEntity
  8
ANCON-HLD
100
AcDbLine
 10
9616.706731701723
 20
-2028.615227219114
 30
0.0
 11
9616.706731701723
 21
-2070.615227219114
 31
0.0
  0
LINE
  5
68
330
2
100
AcDbEntity
  8
CENTRE
100
AcDbLine
 10
9451.706731701721
 20
-2149.326098272916
 30
0.0
 11
9451.706731701721
 21
-1949.326098272916
 31
0.0
  0
LINE
  5
69
330
2
100
AcDbEntity
  8
CENTRE
 48
0.5
100
AcDbLine
 10
9132.190475865103
 20
-2049.326098272919
 30
0.0
 11
9625.935005868853
 21
-2049.326098272919
 31
0.0
  0
LINE
  5
6A
330
2
100
AcDbEntity
  8
ANCON-HLD
100
AcDbLine
 10
9146.706731701723
 20
-2294.042250961019
 30
0.0
 11
9376.706731701721
 21
-2294.042250961021
 31
0.0
  0
LINE
  5
6B
330
2
100
AcDbEntity
  8
ANCON-HLD
100
AcDbLine
 10
9146.706731701723
 20
-2336.042250961025
 30
0.0
 11
9376.706731701721
 21
-2336.042250961022
 31
0.0
  0
LINE
  5
6C
330
2
100
AcDbEntity
  8
ANCON-HLD
100
AcDbLine
 10
9146.706731701723
 20
-2070.615227219114
 30
0.0
 11
9376.706731701721
 21
-2070.615227219114
 31
0.0
  0
LINE
  5
6D
330
2
100
AcDbEntity
  8
ANCON-HLD
100
AcDbLine
 10
9146.706731701723
 20
-2028.615227219114
 30
0.0
 11
9376.706731701721
 21
-2028.615227219114
 31
0.0
  0
LINE
  5
6E
330
2
100
AcDbEntity
  8
ANCON-CONCRETE
100
AcDbLine
 10
9376.706731701721
 20
-1933.146451158139
 30
0.0
 11
9376.706731701721
 21
-2166.084003280087
 31
0.0
  0
LINE
  5
6F
330
2
100
AcDbEntity
  8
ANCON-CONCRETE
100
AcDbLine
 10
9356.706731701725
 20
-1933.146451158139
 30
0.0
 11
9356.706731701725
 21
-2166.084003280087
 31
0.0
  0
LWPOLYLINE
  5
70
330
2
100
AcDbEntity
  8
ANCON-HLD
100
AcDbPolyline
 90
        2
 70
     0
 43
0.0
 10
9351.706731701725
 20
-2073.615227219113
 10
9211.706731701724
 20
-2073.615227219113
  0
LWPOLYLINE
  5
71
330
2
100
AcDbEntity
  8
ANCON-HLD
100
AcDbPolyline
 90
        2
 70
     0
 43
0.0
 10
9351.706731701725
 20
-2025.615227219114
 10
9211.706731701726
 20
-2025.615227219114
  0
ARC
  5
72
330
2
100
AcDbEntity
  8
ANCON-HLD
100
AcDbCircle
 10
9316.706731701724
 20
-2009.842971468597
 30
0.0
 40
40.0
100
AcDbArc
 50
28.95502437189174
 51
57.4210296071875
  0
ARC
  5
73
330
2
100
AcDbEntity
  8
ANCON-HLD
100
AcDbCircle
 10
9316.706731701724
 20
-2009.842971468597
 30
0.0
 40
35.0
100
AcDbArc
 50
28.95502437189174
 51
57.4210296071875
  0
ARC
  5
74
330
2
100
AcDbEntity
  8
ANCON-HLD
100
AcDbCircle
 10
9316.706731701724
 20
-2089.387482969631
 30
0.0
 40
40.0
100
AcDbArc
 50
302.5789703928125
 51
331.0449756281083
  0
ARC
  5
75
330
2
100
AcDbEntity
  8
ANCON-HLD
100
AcDbCircle
 10
9316.706731701724
 20
-2089.387482969631
 30
0.0
 40
35.0
100
AcDbArc
 50
302.5789703928125
 51
331.0449756281083
  0
LINE
  5
76
330
2
100
AcDbEntity
  8
ANCON-HLD
100
AcDbLine
 10
9351.706731701725
 20
-2249.042250961021
 30
0.0
 11
9206.706731701725
 21
-2249.042250961021
 31
0.0
  0
LINE
  5
77
330
2
100
AcDbEntity
  8
ANCON-HLD
100
AcDbLine
 10
9351.706731701725
 20
-2381.042250961022
 30
0.0
 11
9206.706731701725
 21
-2381.042250961022
 31
0.0
  0
LINE
  5
78
330
2
100
AcDbEntity
  8
ANCON-HLD
100
AcDbLine
 10
9351.706731701725
 20
-2393.042250961022
 30
0.0
 11
9351.706731701725
 21
-2237.042250961022
 31
0.0
  0
LINE
  5
79
330
2
100
AcDbEntity
  8
ANCON-HLD
100
AcDbLine
 10
9356.706731701725
 20
-2393.042250961022
 30
0.0
 11
9356.706731701725
 21
-2237.042250961022
 31
0.0
  0
LINE
  5
7A
330
2
100
AcDbEntity
  8
ANCON-HLD
100
AcDbLine
 10
9351.706731701725
 20
-2393.042250961022
 30
0.0
 11
9356.706731701725
 21
-2393.042250961022
 31
0.0
  0
LINE
  5
7B
330
2
100
AcDbEntity
  8
ANCON-HLD
100
AcDbLine
 10
9351.706731701725
 20
-2237.042250961022
 30
0.0
 11
9356.706731701725
 21
-2237.042250961022
 31
0.0
  0
LINE
  5
7C
330
2
100
AcDbEntity
  8
ANCON-HLD
100
AcDbLine
 10
9351.706731701725
 20
-2119.615227219114
 30
0.0
 11
9351.706731701725
 21
-1979.615227219113
 31
0.0
  0
LINE
  5
7D
330
2
100
AcDbEntity
  8
ANCON-HLD
100
AcDbLine
 10
9356.706731701725
 20
-2119.615227219114
 30
0.0
 11
9356.706731701725
 21
-1979.615227219113
 31
0.0
  0
LINE
  5
7E
330
2
100
AcDbEntity
  8
ANCON-HLD
100
AcDbLine
 10
9347.331731701725
 20
-2106.331785109286
 30
0.0
 11
9351.706731701725
 21
-2108.752399700666
 31
0.0
  0
LINE
  5
7F
330
2
100
AcDbEntity
  8
ANCON-HLD
100
AcDbLine
 10
9347.331731701725
 20
-2106.331785109285
 30
0.0
 11
9351.706731701725
 21
-2108.752399700664
 31
0.0
  0
LINE
  5
80
330
2
100
AcDbEntity
  8
ANCON-HLD
100
AcDbLine
 10
9347.331731701725
 20
-2106.331785109288
 30
0.0
 11
9351.706731701725
 21
-2108.752399700667
 31
0.0
  0
LINE
  5
81
330
2
100
AcDbEntity
  8
ANCON-HLD
100
AcDbLine
 10
9356.706731701725
 20
-2119.615227219114
 30
0.0
 11
9351.706731701725
 21
-2119.615227219114
 31
0.0
  0
LINE
  5
82
330
2
100
AcDbEntity
  8
ANCON-HLD
100
AcDbLine
 10
9347.381442715885
 20
-1992.86414446091
 30
0.0
 11
9351.756442715885
 21
-1990.44352986953
 31
0.0
  0
LINE
  5
83
330
2
100
AcDbEntity
  8
ANCON-HLD
100
AcDbLine
 10
9347.381442715885
 20
-1992.86414446091
 30
0.0
 11
9351.756442715885
 21
-1990.443529869531
 31
0.0
  0
LINE
  5
84
330
2
100
AcDbEntity
  8
ANCON-HLD
100
AcDbLine
 10
9356.706731701725
 20
-1979.615227219113
 30
0.0
 11
9351.706731701725
 21
-1979.615227219113
 31
0.0
  0
LINE
  5
85
330
2
100
AcDbEntity
  8
ANCON-HLD
100
AcDbLine
 10
9347.331731701725
 20
-1992.89866932894
 30
0.0
 11
9351.706731701725
 21
-1990.478054737561
 31
0.0
  0
LINE
  5
86
330
2
100
AcDbEntity
  8
ANCON-HLD
100
AcDbLine
 10
9206.706731701725
 20
-2381.042250961022
 30
0.0
 11
9206.706731701725
 21
-2249.042250961021
 31
0.0
  0
LINE
  5
87
330
2
100
AcDbEntity
  8
CENTRE
100
AcDbLine
 10
9784.540408594274
 20
-2149.326098272919
 30
0.0
 11
9784.540408594274
 21
-1949.326098272919
 31
0.0
  0
LINE
  5
88
330
2
100
AcDbEntity
  8
CENTRE
 48
0.5
100
AcDbLine
 10
9370.594084632399
 20
-2315.042250961022
 30
0.0
 11
9097.615852587432
 21
-2315.042250961022
 31
0.0
  0
CIRCLE
  5
89
330
2
100
AcDbEntity
  8
ANCON-HLD
100
AcDbCircle
 10
9281.706731701724
 20
-2315.042250961022
 30
0.0
 40
20.0
  0
LINE
  5
8A
330
2
100
AcDbEntity
  8
CENTRE
 48
0.5
100
AcDbLine
 10
9281.706731701724
 20
-2340.042250961022
 30
0.0
 11
9281.706731701724
 21
-2290.042250961022
 31
0.0
  0
LINE
  5
8B
330
2
100
AcDbEntity
  8
ANCON-HLD
100
AcDbLine
 10
9206.706731701725
 20
-2291.042250961022
 30
0.0
 11
9135.901576291994
 21
-2291.042250961022
 31
0.0
  0
LINE
  5
8C
330
2
100
AcDbEntity
  8
ANCON-HLD
100
AcDbLine
 10
9206.706731701725
 20
-2339.042250961021
 30
0.0
 11
9135.901576291994
 21
-2339.042250961021
 31
0.0
  0
LINE
  5
8D
330
2
100
AcDbEntity
  8
ANCON-HLD
100
AcDbLine
 10
9110.901576291993
 20
-2291.042250961022
 30
0.0
 11
9110.901576291993
 21
-2339.042250961021
 31
0.0
  0
LINE
  5
8E
330
2
100
AcDbEntity
  8
ANCON-HLD
100
AcDbLine
 10
9135.901576291994
 20
-2315.042250961022
 30
0.0
 11
9135.901576291994
 21
-2340.042250961021
 31
0.0
  0
LINE
  5
8F
330
2
100
AcDbEntity
  8
ANCON-HLD
100
AcDbLine
 10
9135.901576291994
 20
-2340.042250961021
 30
0.0
 11
9111.901576291995
 21
-2340.042250961021
 31
0.0
  0
ARC
  5
90
330
2
100
AcDbEntity
  8
ANCON-HLD
100
AcDbCircle
 10
9111.901576291995
 20
-2339.042250961021
 30
0.0
 40
1.0
100
AcDbArc
 50
180.0
 51
270.0
  0
LINE
  5
91
330
2
100
AcDbEntity
  8
ANCON-HLD
100
AcDbLine
 10
9135.901576291994
 20
-2290.042250961022
 30
0.0
 11
9111.901576291995
 21
-2290.042250961022
 31
0.0
  0
LINE
  5
92
330
2
100
AcDbEntity
  8
ANCON-HLD
100
AcDbLine
 10
9135.901576291994
 20
-2315.042250961022
 30
0.0
 11
9135.901576291994
 21
-2290.042250961022
 31
0.0
  0
ARC
  5
93
330
2
100
AcDbEntity
  8
ANCON-HLD
100
AcDbCircle
 10
9111.901576291995
 20
-2291.042250961022
 30
0.0
 40
1.0
100
AcDbArc
 50
90.0
 51
180.0
  0
ARC
  5
94
330
2
100
AcDbEntity
  8
ANCON-HLD
100
AcDbCircle
 10
9246.706731701726
 20
-2009.842971468597
 30
0.0
 40
40.0
100
AcDbArc
 50
122.5789703928125
 51
180.0
  0
ARC
  5
95
330
2
100
AcDbEntity
  8
ANCON-HLD
100
AcDbCircle
 10
9246.706731701726
 20
-2009.842971468597
 30
0.0
 40
35.0
100
AcDbArc
 50
122.5789703928125
 51
180.0
  0
ARC
  5
96
330
2
100
AcDbEntity
  8
ANCON-HLD
100
AcDbCircle
 10
9246.706731701726
 20
-2089.387482969631
 30
0.0
 40
40.0
100
AcDbArc
 50
180.0
 51
237.4210296071875
  0
ARC
  5
97
330
2
100
AcDbEntity
  8
ANCON-HLD
100
AcDbCircle
 10
9246.706731701726
 20
-2089.387482969631
 30
0.0
 40
35.0
100
AcDbArc
 50
180.0
 51
237.4210296071875
  0
ARC
  5
98
330
2
100
AcDbEntity
  8
ANCON-HLD
100
AcDbCircle
 10
9281.706731701724
 20
-2034.615227219113
 30
0.0
 40
105.0
100
AcDbArc
 50
237.4210296071875
 51
302.5789703928125
  0
ARC
  5
99
330
2
100
AcDbEntity
  8
ANCON-HLD
100
AcDbCircle
 10
9281.706731701724
 20
-2034.615227219113
 30
0.0
 40
100.0
100
AcDbArc
 50
237.4210296071875
 51
302.5789703928125
  0
ARC
  5
9A
330
2
100
AcDbEntity
  8
ANCON-HLD
100
AcDbCircle
 10
9281.706731701724
 20
-2064.615227219114
 30
0.0
 40
100.0
100
AcDbArc
 50
57.4210296071875
 51
122.5789703928125
  0
ARC
  5
9B
330
2
100
AcDbEntity
  8
ANCON-HLD
100
AcDbCircle
 10
9281.706731701724
 20
-2064.615227219114
 30
0.0
 40
105.0
100
AcDbArc
 50
57.4210296071875
 51
122.5789703928125
  0
LINE
  5
9C
330
2
100
AcDbEntity
  8
CENTRE
100
AcDbLine
 10
9306.706731701725
 20
-2055.615227219114
 30
0.0
 11
9306.706731701725
 21
-2043.615227219113
 31
0.0
  0
CIRCLE
  5
9D
330
2
100
AcDbEntity
  8
ANCON-HLD
100
AcDbCircle
 10
9306.706731701725
 20
-2049.615227219113
 30
0.0
 40
3.0
  0
LINE
  5
9E
330
2
100
AcDbEntity
  8
ANCON-HLD
100
AcDbLine
 10
9110.901576291993
 20
-2025.615227219114
 30
0.0
 11
9110.901576291993
 21
-2073.615227219113
 31
0.0
  0
LINE
  5
9F
330
2
100
AcDbEntity
  8
ANCON-HLD
100
AcDbLine
 10
9135.901576291994
 20
-2049.615227219113
 30
0.0
 11
9135.901576291994
 21
-2074.615227219114
 31
0.0
  0
LINE
  5
A0
330
2
100
AcDbEntity
  8
ANCON-HLD
100
AcDbLine
 10
9206.706731701725
 20
-2089.387482969631
 30
0.0
 11
9206.706731701725
 21
-2009.842971468597
 31
0.0
  0
LINE
  5
A1
330
2
100
AcDbEntity
  8
ANCON-HLD
100
AcDbLine
 10
9211.706731701724
 20
-2089.387482969631
 30
0.0
 11
9211.706731701724
 21
-2009.842971468597
 31
0.0
  0
LINE
  5
A2
330
2
100
AcDbEntity
  8
ANCON-HLD
100
AcDbLine
 10
9206.706731701725
 20
-2073.615227219113
 30
0.0
 11
9135.901576291994
 21
-2073.615227219113
 31
0.0
  0
LINE
  5
A3
330
2
100
AcDbEntity
  8
ANCON-HLD
100
AcDbLine
 10
9135.901576291994
 20
-2074.615227219114
 30
0.0
 11
9111.901576291995
 21
-2074.615227219114
 31
0.0
  0
ARC
  5
A4
330
2
100
AcDbEntity
  8
ANCON-HLD
100
AcDbCircle
 10
9111.901576291995
 20
-2073.615227219113
 30
0.0
 40
1.0
100
AcDbArc
 50
180.0
 51
270.0
  0
LINE
  5
A5
330
2
100
AcDbEntity
  8
ANCON-HLD
100
AcDbLine
 10
9206.706731701727
 20
-2025.615227219114
 30
0.0
 11
9135.901576291994
 21
-2025.615227219113
 31
0.0
  0
LINE
  5
A6
330
2
100
AcDbEntity
  8
ANCON-HLD
100
AcDbLine
 10
9135.901576291994
 20
-2024.615227219114
 30
0.0
 11
9111.901576291995
 21
-2024.615227219114
 31
0.0
  0
LINE
  5
A7
330
2
100
AcDbEntity
  8
ANCON-HLD
100
AcDbLine
 10
9135.901576291994
 20
-2049.615227219113
 30
0.0
 11
9135.901576291994
 21
-2024.615227219114
 31
0.0
  0
ARC
  5
A8
330
2
100
AcDbEntity
  8
ANCON-HLD
100
AcDbCircle
 10
9111.901576291995
 20
-2025.615227219114
 30
0.0
 40
1.0
100
AcDbArc
 50
90.0
 51
180.0
  0
LINE
  5
A9
330
2
100
AcDbEntity
  8
CENTRE
100
AcDbLine
 10
9754.540408594273
 20
-2049.326098272919
 30
0.0
 11
9814.540408594275
 21
-2049.326098272919
 31
0.0
  0
CIRCLE
  5
AA
330
2
100
AcDbEntity
  8
ANCON-HLD
100
AcDbCircle
 10
9784.540408594274
 20
-2049.326098272919
 30
0.0
 40
21.0
  0
CIRCLE
  5
AB
330
2
100
AcDbEntity
  8
ANCON-HLD
100
AcDbCircle
 10
9784.540408594274
 20
-2049.326098272919
 30
0.0
 40
24.0
  0
LINE
  5
AC
330
2
100
AcDbEntity
  8
ANCON-HLD
100
AcDbLine
 10
9697.040408594274
 20
-1959.326098272919
 30
0.0
 11
9764.540408594275
 21
-1959.326098272918
 31
0.0
  0
LINE
  5
AD
330
2
100
AcDbEntity
  8
ANCON-HLD
100
AcDbLine
 10
9872.040408594273
 20
-2139.326098272919
 30
0.0
 11
9872.040408594273
 21
-2119.326098272919
 31
0.0
  0
LINE
  5
AE
330
2
100
AcDbEntity
  8
ANCON-HLD
100
AcDbLine
 10
9884.040408594273
 20
-2119.326098272919
 30
0.0
 11
9884.040408594273
 21
-1979.326098272919
 31
0.0
  0
LINE
  5
AF
330
2
100
AcDbEntity
  8
ANCON-HLD
100
AcDbLine
 10
9685.040408594275
 20
-2119.326098272919
 30
0.0
 11
9884.040408594273
 21
-2119.326098272919
 31
0.0
  0
LINE
  5
B0
330
2
100
AcDbEntity
  8
CENTRE
 48
0.125
100
AcDbLine
 10
9874.040408594275
 20
-2114.326098272919
 30
0.0
 11
9884.040408594273
 21
-2114.326098272919
 31
0.0
  0
LINE
  5
B1
330
2
100
AcDbEntity
  8
CENTRE
 48
0.125
100
AcDbLine
 10
9879.040408594274
 20
-2109.326098272919
 30
0.0
 11
9879.040408594274
 21
-2119.326098272919
 31
0.0
  0
CIRCLE
  5
B2
330
2
100
AcDbEntity
  8
ANCON-HLD
100
AcDbCircle
 10
9879.040408594274
 20
-2114.326098272919
 30
0.0
 40
2.5
  0
LINE
  5
B3
330
2
100
AcDbEntity
  8
ANCON-HLD
100
AcDbLine
 10
9685.040408594275
 20
-1979.326098272919
 30
0.0
 11
9884.040408594273
 21
-1979.326098272919
 31
0.0
  0
CIRCLE
  5
B4
330
2
100
AcDbEntity
  8
ANCON-HLD
100
AcDbCircle
 10
9879.040408594274
 20
-1984.326098272919
 30
0.0
 40
2.5
  0
LINE
  5
B5
330
2
100
AcDbEntity
  8
CENTRE
 48
0.125
100
AcDbLine
 10
9879.040408594274
 20
-1979.326098272919
 30
0.0
 11
9879.040408594274
 21
-1989.326098272919
 31
0.0
  0
LINE
  5
B6
330
2
100
AcDbEntity
  8
CENTRE
 48
0.125
100
AcDbLine
 10
9874.040408594275
 20
-1984.326098272919
 30
0.0
 11
9884.040408594273
 21
-1984.326098272919
 31
0.0
  0
LINE
  5
B7
330
2
100
AcDbEntity
  8
ANCON-HLD
100
AcDbLine
 10
9697.040408594274
 20
-2139.326098272919
 30
0.0
 11
9697.040408594274
 21
-2119.326098272918
 31
0.0
  0
LINE
  5
B8
330
2
100
AcDbEntity
  8
ANCON-HLD
100
AcDbLine
 10
9685.040408594275
 20
-2119.326098272919
 30
0.0
 11
9685.040408594275
 21
-1979.326098272919
 31
0.0
  0
LINE
  5
B9
330
2
100
AcDbEntity
  8
CENTRE
 48
0.125
100
AcDbLine
 10
9690.040408594274
 20
-2109.326098272919
 30
0.0
 11
9690.040408594274
 21
-2119.326098272919
 31
0.0
  0
LINE
  5
BA
330
2
100
AcDbEntity
  8
CENTRE
 48
0.125
100
AcDbLine
 10
9685.040408594275
 20
-2114.326098272919
 30
0.0
 11
9695.040408594273
 21
-2114.326098272919
 31
0.0
  0
CIRCLE
  5
BB
330
2
100
AcDbEntity
  8
ANCON-HLD
100
AcDbCircle
 10
9690.040408594274
 20
-2114.326098272919
 30
0.0
 40
2.5
  0
CIRCLE
  5
BC
330
2
100
AcDbEntity
  8
ANCON-HLD
100
AcDbCircle
 10
9690.040408594274
 20
-1984.326098272919
 30
0.0
 40
2.5
  0
LINE
  5
BD
330
2
100
AcDbEntity
  8
CENTRE
 48
0.125
100
AcDbLine
 10
9690.040408594274
 20
-1979.326098272919
 30
0.0
 11
9690.040408594274
 21
-1989.326098272919
 31
0.0
  0
LINE
  5
BE
330
2
100
AcDbEntity
  8
CENTRE
 48
0.125
100
AcDbLine
 10
9685.040408594275
 20
-1984.326098272919
 30
0.0
 11
9695.040408594273
 21
-1984.326098272919
 31
0.0
  0
LINE
  5
BF
330
2
100
AcDbEntity
  8
CENTRE
100
AcDbLine
 10
9103.481891732064
 20
-2049.615227219113
 30
0.0
 11
9368.394866060853
 21
-2049.615227219113
 31
0.0
  0
LINE
  5
C0
330
2
100
AcDbEntity
  8
CENTRE
100
AcDbLine
 10
9281.706731701724
 20
-1949.762166479019
 30
0.0
 11
9281.706731701724
 21
-2141.851935342818
 31
0.0
  0
LINE
  5
C1
330
2
100
AcDbEntity
  8
CENTRE
 48
0.125
100
AcDbLine
 10
9349.367941536403
 20
-1984.615227219113
 30
0.0
 11
9359.367941536403
 21
-1984.615227219113
 31
0.0
  0
LINE
  5
C2
330
2
100
AcDbEntity
  8
CENTRE
 48
0.125
100
AcDbLine
 10
9349.367941536403
 20
-2114.615227219113
 30
0.0
 11
9359.367941536403
 21
-2114.615227219113
 31
0.0
  0
LINE
  5
C3
330
2
100
AcDbEntity
  8
CENTRE
 48
0.125
100
AcDbLine
 10
9349.367941536403
 20
-2242.042250961022
 30
0.0
 11
9359.367941536403
 21
-2242.042250961022
 31
0.0
  0
LINE
  5
C4
330
2
100
AcDbEntity
  8
CENTRE
 48
0.125
100
AcDbLine
 10
9349.367941536403
 20
-2388.042250961022
 30
0.0
 11
9359.367941536403
 21
-2388.042250961022
 31
0.0
  0
LINE
  5
C5
330
2
100
AcDbEntity
  8
ANCON-HLD
100
AcDbLine
 10
9697.040408594274
 20
-1979.326098272919
 30
0.0
 11
9697.040408594274
 21
-1959.326098272919
 31
0.0
  0
LINE
  5
C6
330
2
100
AcDbEntity
  8
ANCON-HLD
100
AcDbLine
 10
9872.040408594273
 20
-1979.326098272918
 30
0.0
 11
9872.040408594273
 21
-1959.326098272919
 31
0.0
  0
LINE
  5
C7
330
2
100
AcDbEntity
  8
ANCON-HLD
100
AcDbLine
 10
9804.540408594274
 20
-1959.326098272918
 30
0.0
 11
9872.040408594273
 21
-1959.326098272919
 31
0.0
  0
ELLIPSE
  5
C8
330
2
100
AcDbEntity
  8
ANCON-HLD
100
AcDbEllipse
 10
9784.540408594274
 20
-1959.326098272918
 30
0.0
 11
20.0
 21
0.0
 31
0.0
210
0.0
220
0.0
230
-1.0
 40
0.0961179679779889
 41
0.0
 42
3.141592653589793
  0
ELLIPSE
  5
C9
330
2
100
AcDbEntity
  8
ANCON-HLD
100
AcDbEllipse
 10
9784.540408594274
 20
-2139.32609827292
 30
0.0
 11
20.0
 21
0.0
 31
0.0
210
0.0
220
0.0
230
1.0
 40
0.0961179679779889
 41
0.0
 42
3.141592653589793
  0
LINE
  5
CA
330
2
100
AcDbEntity
  8
ANCON-HLD
100
AcDbLine
 10
9804.540408594274
 20
-2139.32609827292
 30
0.0
 11
9872.040408594273
 21
-2139.32609827292
 31
0.0
  0
LINE
  5
CB
330
2
100
AcDbEntity
  8
ANCON-HLD
100
AcDbLine
 10
9697.040408594274
 20
-2139.32609827292
 30
0.0
 11
9764.540408594275
 21
-2139.32609827292
 31
0.0
  0
LINE
  5
CC
330
2
100
AcDbEntity
  8
ANCON-CONCRETE
100
AcDbLine
 10
9376.706731701721
 20
-2198.573474900047
 30
0.0
 11
9376.706731701721
 21
-2431.511027021996
 31
0.0
  0
LINE
  5
CD
330
2
100
AcDbEntity
  8
ANCON-CONCRETE
100
AcDbLine
 10
9356.706731701724
 20
-2198.573474900047
 30
0.0
 11
9356.706731701724
 21
-2431.511027021996
 31
0.0
  0
LINE
  5
CE
330
2
100
AcDbEntity
  8
ANCON-TEXT
100
AcDbLine
 10
9347.870035530675
 20
-2509.63443224283
 30
0.0
 11
9347.870035530675
 21
-2562.732678376923
 31
0.0
  0
TEXT
  5
D2
330
2
100
AcDbEntity
  8
ANCON-TEXT
100
AcDbText
 10
9309.948250522271
 20
-2551.917121283824
 30
0.0
 40
5.0
  1
???
  7
ROMANS
 72
     4
 11
9316.376821950843
 21
-2549.417121283824
 31
0.0
100
AcDbText
  0
LINE
  5
D3
330
2
100
AcDbEntity
  8
ANCON-TEXT
100
AcDbLine
 10
9282.999451395875
 20
-2509.63443224283
 30
0.0
 11
9282.999451395875
 21
-2562.732678376923
 31
0.0
  0
TEXT
  5
D4
330
2
100
AcDbEntity
  8
ANCON-TEXT
100
AcDbText
 10
9288.519679093699
 20
-2519.89531790524
 30
0.0
 40
5.0
  1
SERVICEABILITY
  7
ROMANS
 72
     4
 11
9316.376821950843
 21
-2517.39531790524
 31
0.0
100
AcDbText
  0
TEXT
  5
D5
330
2
100
AcDbEntity
  8
ANCON-TEXT
100
AcDbText
 10
9291.614917188937
 20
-2530.838596843818
 30
0.0
 40
5.0
  1
LOAD ( kN )
  7
ROMANS
 72
     4
 11
9316.376821950843
 21
-2528.695739700961
 31
0.0
100
AcDbText
  0
LINE
  5
D6
330
2
100
AcDbEntity
  8
ANCON-TEXT
100
AcDbLine
 10
9222.491357838814
 20
-2509.63443224283
 30
0.0
 11
9222.491357838814
 21
-2562.732678376923
 31
0.0
  0
TEXT
  5
D7
330
2
100
AcDbEntity
  8
ANCON-TEXT
100
AcDbText
 10
9179.921837225979
 20
-2519.900148402371
 30
0.0
 40
5.0
  1
HLD REF:
  7
ROMANS
 72
     4
 11
9197.659932464075
 21
-2517.400148402372
 31
0.0
100
AcDbText
  0
TEXT
  5
D8
330
2
100
AcDbEntity
  8
ANCON-TEXT
100
AcDbText
 10
9181.853012427032
 20
-2551.917121283824
 30
0.0
 40
5.0
  1
HLD 42
  7
ROMANS
 72
     4
 11
9196.376821950842
 21
-2549.417121283824
 31
0.0
100
AcDbText
  0
LINE
  5
D9
330
2
100
AcDbEntity
  8
ANCON-TEXT
100
AcDbLine
 10
9172.491357838813
 20
-2509.63443224283
 30
0.0
 11
9172.491357838813
 21
-2562.732678376923
 31
0.0
  0
LINE
  5
DA
330
2
100
AcDbEntity
  8
ANCON-TEXT
100
AcDbLine
 10
9172.491357838813
 20
-2562.732678376923
 30
0.0
 11
9347.870035530675
 21
-2562.732678376923
 31
0.0
  0
LINE
  5
DB
330
2
100
AcDbEntity
  8
ANCON-TEXT
100
AcDbLine
 10
9172.491357838813
 20
-2535.705193301875
 30
0.0
 11
9347.870035530675
 21
-2535.705193301875
 31
0.0
  0
LINE
  5
DC
330
2
100
AcDbEntity
  8
ANCON-TEXT
100
AcDbLine
 10
9172.491357838813
 20
-2509.63443224283
 30
0.0
 11
9347.870035530675
 21
-2509.63443224283
 31
0.0
  0
TEXT
  5
DD
330
2
100
AcDbEntity
  8
ANCON-TEXT
100
AcDbText
 10
9227.595026203699
 20
-2519.900148402371
 30
0.0
 40
5.0
  1
DESIGN JOINT
  7
ROMANS
 72
     4
 11
9253.66645477513
 21
-2517.400148402372
 31
0.0
100
AcDbText
  0
TEXT
  5
DE
330
2
100
AcDbEntity
  8
ANCON-TEXT
100
AcDbText
 10
9243.995869569891
 20
-2551.917121283824
 30
0.0
 40
5.0
  1
?? MM
  7
ROMANS
 72
     4
 11
9256.376821950842
 21
-2549.417121283824
 31
0.0
100
AcDbText
  0
TEXT
  5
DF
330
2
100
AcDbEntity
  8
ANCON-TEXT
100
AcDbText
 10
9243.071216679892
 20
-2530.79777178999
 30
0.0
 40
5.0
  1
WIDTH
  7
ROMANS
 72
     4
 11
9253.66645477513
 21
-2528.29777178999
 31
0.0
100
AcDbText
  0
LINE
  5
E0
330
2
100
AcDbEntity
  8
ANCON-TEXT
100
AcDbLine
 10
9686.85353088847
 20
-2541.518158016704
 30
0.0
 11
9686.85353088847
 21
-2594.551850602254
 31
0.0
  0
LINE
  5
E1
330
2
100
AcDbEntity
  8
ANCON-TEXT
100
AcDbLine
 10
9551.956431704592
 20
-2512.15164434961
 30
0.0
 11
9551.956431704592
 21
-2524.069619641612
 31
0.0
  0
LINE
  5
E2
330
2
100
AcDbEntity
  8
ANCON-TEXT
100
AcDbLine
 10
9484.366580781829
 20
-2512.15164434961
 30
0.0
 11
9484.366580781829
 21
-2524.069619641612
 31
0.0
  0
LINE
  5
E3
330
2
100
AcDbEntity
  8
ANCON-TEXT
100
AcDbLine
 10
9484.366580781829
 20
-2541.518158016704
 30
0.0
 11
9484.366580781829
 21
-2594.551850602254
 31
0.0
  0
TEXT
  5
E4
330
2
100
AcDbEntity
  8
ANCON-TEXT
100
AcDbText
 10
9489.636042266964
 20
-2590.848800170826
 30
0.0
 40
5.0
  1
LOAD OF ??? kN
  7
ROMANS
 72
     4
 11
9522.255089886012
 21
-2588.348800170826
 31
0.0
100
AcDbText
  0
LINE
  5
E5
330
2
100
AcDbEntity
  8
ANCON-TEXT
100
AcDbLine
 10
9484.366580781829
 20
-2512.15164434961
 30
0.0
 11
9551.956431704592
 21
-2512.15164434961
 31
0.0
  0
LINE
  5
E6
330
2
100
AcDbEntity
  8
ANCON-TEXT
100
AcDbLine
 10
9484.366580781829
 20
-2524.069619641612
 30
0.0
 11
9551.956431704592
 21
-2524.069619641612
 31
0.0
  0
TEXT
  5
E7
330
2
100
AcDbEntity
  8
ANCON-TEXT
100
AcDbText
 10
9489.217833312364
 20
-2520.788754465454
 30
0.0
 40
5.0
  1
ANCON HLD 42
  7
ROMANS
 72
     4
 11
9518.384499979031
 21
-2518.288754465454
 31
0.0
100
AcDbText
  0
TEXT
  5
E8
330
2
100
AcDbEntity
  8
ANCON-TEXT
100
AcDbText
 10
9356.937845100544
 20
-2550.72320892995
 30
0.0
 40
5.0
  1
SPECIFICATION BY DESCRIPTION
  7
ROMANS
 72
     4
 11
9416.5807022434
 21
-2548.22320892995
 31
0.0
100
AcDbText
  0
TEXT
  5
E9
330
2
100
AcDbEntity
  8
ANCON-TEXT
100
AcDbText
 10
9356.794208490915
 20
-2520.788754465454
 30
0.0
 40
5.0
  1
SPECIFICATION BY PRODUCT
  7
ROMANS
 72
     4
 11
9410.246589443296
 21
-2518.288754465454
 31
0.0
100
AcDbText
  0
TEXT
  5
EA
330
2
100
AcDbEntity
  8
ANCON-TEXT
100
AcDbText
 10
9488.658313986668
 20
-2550.758957556474
 30
0.0
 40
5.0
  1
TWO PART STAINLESS STEEL SHEAR CONNECTOR
  7
ROMANS
 72
     4
 11
9581.277361605717
 21
-2548.258957556474
 31
0.0
100
AcDbText
  0
TEXT
  5
EB
330
2
100
AcDbEntity
  8
ANCON-TEXT
100
AcDbText
 10
9487.937129580613
 20
-2560.863669882265
 30
0.0
 40
5.0
  1
COMPRISING SLEEVE AND DOWEL COMPONENT
  7
ROMANS
 72
     4
 11
9575.913320056804
 21
-2558.363669882265
 31
0.0
100
AcDbText
  0
TEXT
  5
EC
330
2
100
AcDbEntity
  8
ANCON-TEXT
100
AcDbText
 10
9488.450261510621
 20
-2580.813875005864
 30
0.0
 40
5.0
  1
AND CAPABLE OF TRANSFERRING A SERVICEABILITY
  7
ROMANS
 72
     4
 11
9585.831213891573
 21
-2578.313875005863
 31
0.0
100
AcDbText
  0
LINE
  5
ED
330
2
100
AcDbEntity
  8
ANCON-TEXT
100
AcDbLine
 10
9484.366580781829
 20
-2594.551850602254
 30
0.0
 11
9686.85353088847
 21
-2594.551850602254
 31
0.0
  0
LINE
  5
EE
330
2
100
AcDbEntity
  8
ANCON-TEXT
100
AcDbLine
 10
9484.366580781829
 20
-2541.518158016704
 30
0.0
 11
9686.85353088847
 21
-2541.518158016704
 31
0.0
  0
TEXT
  5
EF
330
2
100
AcDbEntity
  8
ANCON-TEXT
100
AcDbText
 10
9487.99582634067
 20
-2570.764817591935
 30
0.0
 40
5.0
  1
SUITABLE FOR A DESIGN JOINT WIDTH OF ?? MM
  7
ROMANS
 72
     4
 11
9582.876778721622
 21
-2568.264817591935
 31
0.0
100
AcDbText
  0
ENDSEC
  0
SECTION
  2
OBJECTS
  0
DICTIONARY
  5
C
330
0
100
AcDbDictionary
281
     1
  3
ACAD_COLOR
350
33
  3
ACAD_GROUP
350
2F
  3
ACAD_LAYOUT
350
10
  3
ACAD_MATERIAL
350
32
  3
ACAD_MLINESTYLE
350
30
  3
ACAD_PLOTSETTINGS
350
31
  3
ACAD_PLOTSTYLENAME
350
B
  3
ACAD_TABLESTYLE
350
34
  3
ACAD_VISUALSTYLE
350
28
  3
ACDBHEADERROUNDTRIPXREC
350
FD
  3
AcDbVariableDictionary
350
F2
  0
DICTIONARY
  5
25
330
23
100
AcDbDictionary
280
     1
281
     1
  3
ACAD_XREC_ROUNDTRIP
360
26
  0
DICTIONARY
  5
19
330
18
100
AcDbDictionary
280
     1
281
     1
  3
ACAD_LAYERSTATES
360
1A
  0
DICTIONARY
  5
8
330
7
100
AcDbDictionary
280
     1
281
     1
  3
ADSK_XREC_LAYER_RECONCILED
360
9
  0
DICTIONARY
  5
36
330
35
100
AcDbDictionary
280
     1
281
     1
  3
ADSK_XREC_LAYER_RECONCILED
360
37
  0
DICTIONARY
  5
D0
330
CF
100
AcDbDictionary
280
     1
281
     1
  3
ADSK_XREC_LAYER_RECONCILED
360
D1
  0
DICTIONARY
  5
43
330
42
100
AcDbDictionary
280
     1
281
     1
  3
ADSK_XREC_LAYER_RECONCILED
360
44
  0
DICTIONARY
  5
3
330
2
100
AcDbDictionary
280
     1
281
     1
  3
ACAD_LAYOUTSELFREF
360
4
  3
ACAD_SORTENTS
360
F0
  0
DICTIONARY
  5
13
330
12
100
AcDbDictionary
280
     1
281
     1
  3
ACAD_LAYOUTSELFREF
360
14
  0
DICTIONARY
  5
33
102
{ACAD_REACTORS
330
C
102
}
330
C
100
AcDbDictionary
281
     1
  0
DICTIONARY
  5
2F
102
{ACAD_REACTORS
330
C
102
}
330
C
100
AcDbDictionary
281
     1
  0
DICTIONARY
  5
10
102
{ACAD_REACTORS
330
C
102
}
330
C
100
AcDbDictionary
281
     1
  3
Layout1
350
17
  3
Model
350
F
  0
DICTIONARY
  5
32
102
{ACAD_REACTORS
330
C
102
}
330
C
100
AcDbDictionary
281
     1
  0
DICTIONARY
  5
30
102
{ACAD_REACTORS
330
C
102
}
330
C
100
AcDbDictionary
281
     1
  3
STANDARD
350
38
  0
DICTIONARY
  5
31
102
{ACAD_REACTORS
330
C
102
}
330
C
100
AcDbDictionary
281
     1
  0
ACDBDICTIONARYWDFLT
  5
B
102
{ACAD_REACTORS
330
C
102
}
330
C
100
AcDbDictionary
281
     1
  3
Normal
350
A
100
AcDbDictionaryWithDefault
340
A
  0
DICTIONARY
  5
34
102
{ACAD_REACTORS
330
C
102
}
330
C
100
AcDbDictionary
281
     1
  3
Standard
350
39
  0
DICTIONARY
  5
28
102
{ACAD_REACTORS
330
C
102
}
330
C
100
AcDbDictionary
281
     1
  3
2dWireframe
350
27
  0
DICTIONARY
  5
FD
102
{ACAD_REACTORS
330
C
102
}
330
C
100
AcDbDictionary
281
     1
  0
DICTIONARY
  5
F2
102
{ACAD_REACTORS
330
C
102
}
330
C
100
AcDbDictionary
281
     1
  3
CTABLESTYLE
350
F3
  3
DIMASSOC
350
FA
  3
HIDETEXT
350
F9
  3
PROJECTNAME
350
FB
  0
XRECORD
  5
26
102
{ACAD_REACTORS
330
25
102
}
330
25
100
AcDbXrecord
280
     1
102
VTR_0.000_0.000_1.000_1.000_VISUALSTYLE
340
27
102
VTR_0.000_0.000_1.000_1.000_GRIDDISPLAY
 70
     3
102
VTR_0.000_0.000_1.000_1.000_GRIDMAJOR
 70
     5
102
VTR_0.000_0.000_1.000_1.000_DEFAULTLIGHTING
280
     1
102
VTR_0.000_0.000_1.000_1.000_DEFAULTLIGHTINGTYPE
 70
     1
102
VTR_0.000_0.000_1.000_1.000_BRIGHTNESS
141
0.0
102
VTR_0.000_0.000_1.000_1.000_CONTRAST
142
0.0
  0
DICTIONARY
  5
1A
102
{ACAD_REACTORS
330
19
102
}
330
19
100
AcDbDictionary
281
     1
  0
XRECORD
  5
9
102
{ACAD_REACTORS
330
8
102
}
330
8
100
AcDbXrecord
280
     1
290
     1
  0
XRECORD
  5
37
102
{ACAD_REACTORS
330
36
102
}
330
36
100
AcDbXrecord
280
     1
290
     1
  0
XRECORD
  5
D1
102
{ACAD_REACTORS
330
D0
102
}
330
D0
100
AcDbXrecord
280
     1
290
     1
  0
XRECORD
  5
44
102
{ACAD_REACTORS
330
43
102
}
330
43
100
AcDbXrecord
280
     1
290
     1
  0
XRECORD
  5
4
102
{ACAD_REACTORS
330
3
102
}
330
3
100
AcDbXrecord
280
     1
340
2
  0
SORTENTSTABLE
  5
F0
102
{ACAD_REACTORS
330
3
102
}
330
3
100
AcDbSortentsTable
330
2
  0
XRECORD
  5
14
102
{ACAD_REACTORS
330
13
102
}
330
13
100
AcDbXrecord
280
     1
340
12
  0
LAYOUT
  5
17
102
{ACAD_XDICTIONARY
360
100
102
}
102
{ACAD_REACTORS
330
10
102
}
330
10
100
AcDbPlotSettings
  1

  2
None
  4

  6

 40
0.0
 41
0.0
 42
0.0
 43
0.0
 44
0.0
 45
0.0
 46
0.0
 47
0.0
 48
0.0
 49
0.0
140
0.0
141
0.0
142
1.0
143
1.0
 70
   688
 72
     0
 73
     0
 74
     5
  7
Std pen settings.ctb
 75
    16
147
1.0
148
0.0
149
0.0
100
AcDbLayout
  1
Layout1
 70
     1
 71
     1
 10
0.0
 20
0.0
 11
420.0
 21
297.0
 12
0.0
 22
0.0
 32
0.0
 14
1.000000000000000E+20
 24
1.000000000000000E+20
 34
1.000000000000000E+20
 15
-1.000000000000000E+20
 25
-1.000000000000000E+20
 35
-1.000000000000000E+20
146
0.0
 13
0.0
 23
0.0
 33
0.0
 16
1.0
 26
0.0
 36
0.0
 17
0.0
 27
1.0
 37
0.0
 76
     0
330
12
  0
LAYOUT
  5
F
102
{ACAD_XDICTIONARY
360
FE
102
}
102
{ACAD_REACTORS
330
10
102
}
330
10
100
AcDbPlotSettings
  1

  2
none_device
  4
Letter_(8.50_x_11.00_Inches)
  6

 40
6.349999904632568
 41
6.349999904632568
 42
6.350006103515625
 43
6.350006103515625
 44
215.8999938964844
 45
279.3999938964844
 46
0.0
 47
0.0
 48
0.0
 49
0.0
140
0.0
141
0.0
142
1.0
143
190.4825914125939
 70
 11952
 72
     0
 73
     1
 74
     0
  7
Std pen settings.ctb
 75
     0
147
0.005249823580119
148
-187605.733827711
149
104251.2692448299
100
AcDbLayout
  1
Model
 70
     1
 71
     0
 10
0.0
 20
0.0
 11
12.0
 21
9.0
 12
0.0
 22
0.0
 32
0.0
 14
0.0
 24
0.0
 34
0.0
 15
0.0
 25
0.0
 35
0.0
146
0.0
 13
0.0
 23
0.0
 33
0.0
 16
1.0
 26
0.0
 36
0.0
 17
0.0
 27
1.0
 37
0.0
 76
     0
330
2
1001
ACAD_PSEXT
1000
None
1000
None
1000
Not applicable
1000
The layout will not be plotted unless a new plotter configuration name is selected.
1070
     0
  0
MLINESTYLE
  5
38
102
{ACAD_REACTORS
330
30
102
}
330
30
100
AcDbMlineStyle
  2
STANDARD
 70
     0
  3

 62
   256
 51
90.0
 52
90.0
 71
     2
 49
0.5
 62
   256
  6
BYLAYER
 49
-0.5
 62
   256
  6
BYLAYER
  0
ACDBPLACEHOLDER
  5
A
102
{ACAD_REACTORS
330
B
102
}
330
B
  0
TABLESTYLE
  5
39
102
{ACAD_XDICTIONARY
360
3A
102
}
102
{ACAD_REACTORS
330
34
102
}
330
34
100
AcDbTableStyle
  3
Standard
 70
     0
 71
     0
 40
0.06
 41
0.06
280
     0
281
     0
  7
STANDARD
140
0.18
170
     2
 62
     0
 63
     7
283
     0
274
    -2
284
     1
 64
     0
275
    -2
285
     1
 65
     0
276
    -2
286
     1
 66
     0
277
    -2
287
     1
 67
     0
278
    -2
288
     1
 68
     0
279
    -2
289
     1
 69
     0
  7
STANDARD
140
0.25
170
     5
 62
     0
 63
     7
283
     0
274
    -2
284
     1
 64
     0
275
    -2
285
     1
 65
     0
276
    -2
286
     1
 66
     0
277
    -2
287
     1
 67
     0
278
    -2
288
     1
 68
     0
279
    -2
289
     1
 69
     0
  7
STANDARD
140
0.18
170
     5
 62
     0
 63
     7
283
     0
274
    -2
284
     1
 64
     0
275
    -2
285
     1
 65
     0
276
    -2
286
     1
 66
     0
277
    -2
287
     1
 67
     0
278
    -2
288
     1
 68
     0
279
    -2
289
     1
 69
     0
  0
ACAD_PROXY_OBJECT
  5
27
102
{ACAD_REACTORS
330
28
102
}
330
28
100
AcDbProxyObject
 90
      499
 91
      512
 95
   983063
 70
     0
 93
      444
310
430C9915DA5C99599C985B59401049028333333333333E3BF0000000000000FB0107901411070040501600405405064090741402480A0340
 94
        0
1001
ACAD
1000
AcDbSavedByObjectVersion
1070
     0
1000
AcRTDxfName
1000
VISUALSTYLE
  0
DICTIONARYVAR
  5
F3
102
{ACAD_REACTORS
330
F2
102
}
330
F2
100
DictionaryVariables
280
     0
  1
STANDARD
  0
DICTIONARYVAR
  5
FA
102
{ACAD_REACTORS
330
F2
102
}
330
F2
100
DictionaryVariables
280
     0
  1
1
  0
DICTIONARYVAR
  5
F9
102
{ACAD_REACTORS
330
F2
102
}
330
F2
100
DictionaryVariables
280
     0
  1
1
  0
DICTIONARYVAR
  5
FB
102
{ACAD_REACTORS
330
F2
102
}
330
F2
100
DictionaryVariables
280
     0
  1

  0
DICTIONARY
  5
100
330
17
100
AcDbDictionary
280
     1
281
     1
  3
ACAD_XREC_ROUNDTRIP
360
101
  0
DICTIONARY
  5
FE
330
F
100
AcDbDictionary
280
     1
281
     1
  3
ACAD_XREC_ROUNDTRIP
360
FF
  0
DICTIONARY
  5
3A
330
39
100
AcDbDictionary
280
     1
281
     1
  3
ACAD_ROUNDTRIP_2008_TABLESTYLE_CELLSTYLEMAP
360
3B
  3
ACAD_XREC_ROUNDTRIP
360
3C
  0
XRECORD
  5
101
102
{ACAD_REACTORS
330
100
102
}
330
100
100
AcDbXrecord
280
     1
102
SHADEPLOT
 70
     0
102
SHADEPLOTRESLEVEL
 70
     2
102
SHADEPLOTCUSTOMDPI
 70
   300
  0
XRECORD
  5
FF
102
{ACAD_REACTORS
330
FE
102
}
330
FE
100
AcDbXrecord
280
     1
102
SHADEPLOT
 70
     0
102
SHADEPLOTRESLEVEL
 70
     2
102
SHADEPLOTCUSTOMDPI
 70
   300
  0
ACAD_PROXY_OBJECT
  5
3B
102
{ACAD_REACTORS
330
3A
102
}
330
3A
100
AcDbProxyObject
 90
      499
 91
      518
 95
   983063
 70
     0
 93
     4020
310
40D054060020000020000003200101A412A5058000000C100000000000000340FE419019018000000C1003FBFFFFFE02B5E8DC0F42A9CFD029018000000C1003FBFFFFFE02B5E8DC0F42A9CFD049018000000C1003FBFFFFFE02B5E8DC0F42A9CFD089018000000C1003FBFFFFFE02B5E8DC0F42A9CFD109018000000C1003
310
FBFFFFFE02B5E8DC0F42A9CFD209018000000C1003FBFFFFFE02B5E8DC0F42A9CFD01405075F5449544C450041501A8000000C800406904A9416000000304000AD7A3703D0AC73F90640640600000030400FEFFFFFF80AD7A3703D0AA73F40A40600000030400FEFFFFFF80AD7A3703D0AA73F41240600000030400FEFFFFF
310
F80AD7A3703D0AA73F42240600000030400FEFFFFFF80AD7A3703D0AA73F44240600000030400FEFFFFFF80AD7A3703D0AA73F48240600000030400FEFFFFFF80AD7A3703D0AA73F409014217D2115051115480105406A0000003200101A412A5028000000C10002B5E8DC0F42B1CFE419019018000000C1003FBFFFFFE02B
310
5E8DC0F42A9CFD029018000000C1003FBFFFFFE02B5E8DC0F42A9CFD049018000000C1003FBFFFFFE02B5E8DC0F42A9CFD089018000000C1003FBFFFFFE02B5E8DC0F42A9CFD109018000000C1003FBFFFFFE02B5E8DC0F42A9CFD209018000000C1003FBFFFFFE02B5E8DC0F42A9CFD03409065F44415441000
340
1C
340
0
340
0
340
0
340
0
340
0
340
0
340
1C
340
0
340
0
340
0
340
0
340
0
340
0
340
1C
340
0
340
0
340
0
340
0
340
0
340
0
 94
        0
1001
ACAD
1000
AcRTDxfName
1000
CELLSTYLEMAP
  0
XRECORD
  5
3C
102
{ACAD_REACTORS
330
3A
102
}
330
3A
100
AcDbXrecord
280
     1
102
ACAD_ROUNDTRIP_PRE2007_TABLESTYLE
 90
        4
 91
        0
  1

 92
        4
 93
        0
  2

 94
        4
 95
        0
  3

  0
ENDSEC
  0
EOF
